0
SECTION
2
HEADER
9
$EXTMIN
10
0.000000
20
0.000000
9
$EXTMAX
10
48.000000
20
48.000000
0
ENDSEC
0
SECTION
2
TABLES
0
TABLE
2
LTYPE
70
1
0
LTYPE
2
0
70
0
3
Solid Line
72
65
73
0
40
0.0
0
ENDTAB
0
TABLE
2
LAYER
70
1
0
LAYER
2
1
70
0
62
7
6
0
0
ENDTAB
0
ENDSEC
0
SECTION
2
BLOCKS
0
ENDSEC
0
SECTION
2
ENTITIES
0
POLYLINE
8
1
66
1
70
1
0
VERTEX
8
1
10
6.656649
20
0.766357
42
-0.076738
0
VERTEX
8
1
10
6.608984
20
0.889236
42
0.270969
0
VERTEX
8
1
10
7.135586
20
0.980377
42
-0.214351
0
VERTEX
8
1
10
6.810192
20
1.112320
42
0.189921
0
VERTEX
8
1
10
7.004271
20
1.202301
42
-0.035818
0
VERTEX
8
1
10
6.804028
20
1.304779
42
-0.123513
0
VERTEX
8
1
10
6.720367
20
1.409927
42
0.035153
0
VERTEX
8
1
10
6.808918
20
1.419479
42
0.076742
0
VERTEX
8
1
10
6.892431
20
1.479446
42
0.120470
0
VERTEX
8
1
10
6.811312
20
1.526077
42
-0.074696
0
VERTEX
8
1
10
6.684771
20
1.603333
42
-0.147619
0
VERTEX
8
1
10
6.643879
20
1.686462
0
VERTEX
8
1
10
6.655710
20
1.690002
42
0.311652
0
VERTEX
8
1
10
6.802261
20
1.790909
0
VERTEX
8
1
10
6.796532
20
1.792908
42
-0.276421
0
VERTEX
8
1
10
6.575619
20
1.908081
42
-0.255657
0
VERTEX
8
1
10
6.615467
20
1.930664
42
0.300502
0
VERTEX
8
1
10
6.704840
20
2.018738
0
VERTEX
8
1
10
6.701313
20
2.029022
42
0.107328
0
VERTEX
8
1
10
6.631083
20
2.059570
42
-0.207134
0
VERTEX
8
1
10
6.540956
20
2.150208
0
VERTEX
8
1
10
6.547434
20
2.164703
42
-0.066854
0
VERTEX
8
1
10
6.626657
20
2.226578
42
0.171464
0
VERTEX
8
1
10
6.704733
20
2.350357
0
VERTEX
8
1
10
6.690088
20
2.351456
42
-0.179282
0
VERTEX
8
1
10
6.570179
20
2.342636
42
-0.223171
0
VERTEX
8
1
10
6.521383
20
2.411819
42
-0.064828
0
VERTEX
8
1
10
6.504694
20
2.494980
42
0.017101
0
VERTEX
8
1
10
6.493422
20
3.046585
0
VERTEX
8
1
10
6.488367
20
3.090424
0
VERTEX
8
1
10
6.482054
20
3.116455
0
VERTEX
8
1
10
6.474344
20
3.120789
0
VERTEX
8
1
10
6.465105
20
3.099518
0
VERTEX
8
1
10
6.455181
20
3.056426
42
0.009107
0
VERTEX
8
1
10
6.394810
20
2.572739
42
-0.053924
0
VERTEX
8
1
10
6.356365
20
2.439026
0
VERTEX
8
1
10
6.341633
20
2.420547
42
-0.026047
0
VERTEX
8
1
10
6.158813
20
2.341703
42
0.210028
0
VERTEX
8
1
10
6.136646
20
2.314819
0
VERTEX
8
1
10
6.141340
20
2.305374
0
VERTEX
8
1
10
6.153267
20
2.295425
0
VERTEX
8
1
10
6.230141
20
2.256561
42
-0.092325
0
VERTEX
8
1
10
6.323717
20
2.201996
42
-0.451733
0
VERTEX
8
1
10
6.313536
20
2.176788
42
0.091542
0
VERTEX
8
1
10
6.161051
20
2.067612
42
0.328967
0
VERTEX
8
1
10
6.168558
20
2.044617
42
-0.162040
0
VERTEX
8
1
10
6.236423
20
1.978256
42
-0.255721
0
VERTEX
8
1
10
6.228578
20
1.953995
42
0.009417
0
VERTEX
8
1
10
6.069784
20
1.860275
42
0.112696
0
VERTEX
8
1
10
6.101383
20
1.936157
0
VERTEX
8
1
10
6.082476
20
1.943802
0
VERTEX
8
1
10
6.053675
20
1.948929
0
VERTEX
8
1
10
5.944525
20
1.955460
42
-0.238944
0
VERTEX
8
1
10
5.762909
20
2.052567
0
VERTEX
8
1
10
5.736486
20
2.089859
0
VERTEX
8
1
10
5.738342
20
2.106964
42
0.088694
0
VERTEX
8
1
10
5.870962
20
2.125793
42
0.186115
0
VERTEX
8
1
10
5.983942
20
2.256744
0
VERTEX
8
1
10
5.979296
20
2.273605
0
VERTEX
8
1
10
5.865103
20
2.278961
42
-0.247624
0
VERTEX
8
1
10
5.665854
20
2.397202
0
VERTEX
8
1
10
5.659412
20
2.418167
42
-0.159966
0
VERTEX
8
1
10
5.716103
20
2.455780
0
VERTEX
8
1
10
5.869177
20
2.519241
0
VERTEX
8
1
10
5.890617
20
2.531219
0
VERTEX
8
1
10
5.904339
20
2.542770
0
VERTEX
8
1
10
5.908350
20
2.553772
0
VERTEX
8
1
10
5.900650
20
2.564148
0
VERTEX
8
1
10
5.879248
20
2.573807
42
0.027373
0
VERTEX
8
1
10
5.597243
20
2.612530
42
-0.117399
0
VERTEX
8
1
10
5.536848
20
2.643066
42
-0.224253
0
VERTEX
8
1
10
5.530327
20
2.679184
0
VERTEX
8
1
10
5.539425
20
2.704010
42
-0.054224
0
VERTEX
8
1
10
5.671198
20
2.870734
0
VERTEX
8
1
10
5.675596
20
2.878801
42
0.534125
0
VERTEX
8
1
10
5.652861
20
2.930886
42
-0.132379
0
VERTEX
8
1
10
5.474385
20
3.022678
42
-0.307988
0
VERTEX
8
1
10
5.467270
20
3.116302
42
-0.000905
0
VERTEX
8
1
10
5.624468
20
3.405991
0
VERTEX
8
1
10
5.640438
20
3.442062
0
VERTEX
8
1
10
5.649073
20
3.469635
0
VERTEX
8
1
10
5.648460
20
3.486343
0
VERTEX
8
1
10
5.636700
20
3.489761
42
0.150814
0
VERTEX
8
1
10
5.495968
20
3.355270
42
-0.054634
0
VERTEX
8
1
10
5.440229
20
3.290573
42
-0.327761
0
VERTEX
8
1
10
5.421373
20
3.295837
42
-0.102319
0
VERTEX
8
1
10
5.393620
20
3.358215
42
0.019590
0
VERTEX
8
1
10
5.392955
20
3.885269
0
VERTEX
8
1
10
5.387840
20
3.928604
0
VERTEX
8
1
10
5.380720
20
3.954041
0
VERTEX
8
1
10
5.371319
20
3.957520
0
VERTEX
8
1
10
5.359367
20
3.934982
42
0.062625
0
VERTEX
8
1
10
5.315550
20
3.670441
42
0.007789
0
VERTEX
8
1
10
5.293314
20
3.298706
42
-0.056095
0
VERTEX
8
1
10
5.262341
20
3.160004
42
-0.164795
0
VERTEX
8
1
10
5.172613
20
3.086014
42
-0.005737
0
VERTEX
8
1
10
5.031945
20
3.024073
42
0.085238
0
VERTEX
8
1
10
5.018269
20
3.007523
0
VERTEX
8
1
10
5.021788
20
2.997665
0
VERTEX
8
1
10
5.034479
20
2.986969
0
VERTEX
8
1
10
5.163282
20
2.920471
42
-0.158531
0
VERTEX
8
1
10
5.207102
20
2.878677
42
-0.332494
0
VERTEX
8
1
10
5.182499
20
2.834549
42
0.070225
0
VERTEX
8
1
10
4.928892
20
2.649155
42
0.238037
0
VERTEX
8
1
10
4.923803
20
2.615295
0
VERTEX
8
1
10
4.936514
20
2.607956
0
VERTEX
8
1
10
5.005020
20
2.599075
42
-0.097973
0
VERTEX
8
1
10
5.116058
20
2.573853
42
-0.464240
0
VERTEX
8
1
10
5.113575
20
2.535690
0
VERTEX
8
1
10
5.107159
20
2.527405
42
-0.025685
0
VERTEX
8
1
10
4.944342
20
2.398193
0
VERTEX
8
1
10
4.924879
20
2.393433
42
-0.093459
0
VERTEX
8
1
10
4.702765
20
2.495239
42
-0.327106
0
VERTEX
8
1
10
4.706594
20
2.506210
0
VERTEX
8
1
10
4.779289
20
2.521164
42
0.340378
0
VERTEX
8
1
10
4.890604
20
2.648712
42
0.128748
0
VERTEX
8
1
10
4.817360
20
2.644684
42
-0.286846
0
VERTEX
8
1
10
4.658480
20
2.725708
42
-0.076722
0
VERTEX
8
1
10
4.618429
20
2.800644
0
VERTEX
8
1
10
4.651125
20
2.805405
42
0.365865
0
VERTEX
8
1
10
4.791332
20
2.928757
42
0.097405
0
VERTEX
8
1
10
4.730392
20
2.955536
0
VERTEX
8
1
10
4.639149
20
2.973129
42
-0.288836
0
VERTEX
8
1
10
4.507710
20
3.094437
42
-0.120412
0
VERTEX
8
1
10
4.592068
20
3.129059
42
0.288488
0
VERTEX
8
1
10
4.694830
20
3.259384
42
0.137801
0
VERTEX
8
1
10
4.610336
20
3.245153
42
-0.386856
0
VERTEX
8
1
10
4.509947
20
3.304810
42
-0.120503
0
VERTEX
8
1
10
4.471691
20
3.688629
42
0.029145
0
VERTEX
8
1
10
4.475542
20
4.018005
0
VERTEX
8
1
10
4.469656
20
4.048645
0
VERTEX
8
1
10
4.460665
20
4.065033
0
VERTEX
8
1
10
4.448116
20
4.064438
42
0.115947
0
VERTEX
8
1
10
4.387724
20
3.939362
42
0.058143
0
VERTEX
8
1
10
4.336967
20
3.629059
42
-0.004883
0
VERTEX
8
1
10
4.307467
20
3.301743
42
-0.231797
0
VERTEX
8
1
10
4.243160
20
3.224152
42
-0.088722
0
VERTEX
8
1
10
4.047077
20
3.174835
42
0.405493
0
VERTEX
8
1
10
4.167559
20
3.000885
0
VERTEX
8
1
10
4.199055
20
2.991699
0
VERTEX
8
1
10
4.196726
20
2.969711
42
-0.317975
0
VERTEX
8
1
10
3.908949
20
2.727936
42
0.160281
0
VERTEX
8
1
10
4.059290
20
2.583008
42
0.106205
0
VERTEX
8
1
10
4.128399
20
2.575851
42
0.040578
0
VERTEX
8
1
10
4.055264
20
2.435486
42
-0.155480
0
VERTEX
8
1
10
3.977245
20
2.368698
0
VERTEX
8
1
10
4.004522
20
2.334381
42
0.275855
0
VERTEX
8
1
10
4.102760
20
2.299164
42
-0.179592
0
VERTEX
8
1
10
3.877777
20
2.063538
42
-0.069889
0
VERTEX
8
1
10
3.646948
20
2.268178
42
-0.105026
0
VERTEX
8
1
10
3.643744
20
2.285812
42
0.168398
0
VERTEX
8
1
10
3.887842
20
2.238453
42
0.076531
0
VERTEX
8
1
10
3.976580
20
2.271912
0
VERTEX
8
1
10
3.966827
20
2.286560
42
0.085737
0
VERTEX
8
1
10
3.846775
20
2.352646
42
-0.054817
0
VERTEX
8
1
10
3.638350
20
2.473190
42
-0.100561
0
VERTEX
8
1
10
3.560656
20
2.576416
0
VERTEX
8
1
10
3.570547
20
2.585526
42
0.027864
0
VERTEX
8
1
10
3.723877
20
2.649139
42
0.182467
0
VERTEX
8
1
10
3.823481
20
2.784012
0
VERTEX
8
1
10
3.794786
20
2.791275
42
-0.077654
0
VERTEX
8
1
10
3.535500
20
2.859573
42
-0.221350
0
VERTEX
8
1
10
3.421936
20
3.018982
0
VERTEX
8
1
10
3.443575
20
3.027252
0
VERTEX
8
1
10
3.514980
20
3.041306
42
0.145211
0
VERTEX
8
1
10
3.644154
20
3.092880
42
0.165691
0
VERTEX
8
1
10
3.657400
20
3.131577
42
0.029210
0
VERTEX
8
1
10
3.456687
20
3.289425
42
-0.049853
0
VERTEX
8
1
10
3.437077
20
3.315277
0
VERTEX
8
1
10
3.437578
20
3.325333
0
VERTEX
8
1
10
3.445198
20
3.333893
0
VERTEX
8
1
10
3.460785
20
3.340836
42
0.213462
0
VERTEX
8
1
10
3.630468
20
3.470123
42
0.357738
0
VERTEX
8
1
10
3.610315
20
3.513565
0
VERTEX
8
1
10
3.590925
20
3.521271
42
-0.089235
0
VERTEX
8
1
10
3.370281
20
3.606125
42
-0.411607
0
VERTEX
8
1
10
3.375065
20
3.636581
0
VERTEX
8
1
10
3.428583
20
3.664261
42
0.207384
0
VERTEX
8
1
10
3.531281
20
3.785538
42
-0.483939
0
VERTEX
8
1
10
3.429482
20
3.853699
42
-0.065794
0
VERTEX
8
1
10
3.421362
20
3.917815
42
-0.012752
0
VERTEX
8
1
10
3.447785
20
4.274032
42
0.035785
0
VERTEX
8
1
10
3.443260
20
4.316467
0
VERTEX
8
1
10
3.436247
20
4.319778
0
VERTEX
8
1
10
3.425636
20
4.311951
42
0.092319
0
VERTEX
8
1
10
3.277281
20
3.942520
0
VERTEX
8
1
10
3.248753
20
3.773544
42
-0.240864
0
VERTEX
8
1
10
3.169899
20
3.671204
42
0.066156
0
VERTEX
8
1
10
3.019146
20
3.562225
42
0.317904
0
VERTEX
8
1
10
3.024374
20
3.541916
0
VERTEX
8
1
10
3.040493
20
3.536804
42
-0.305800
0
VERTEX
8
1
10
3.208382
20
3.406464
42
-0.329535
0
VERTEX
8
1
10
3.169588
20
3.344940
0
VERTEX
8
1
10
3.149187
20
3.332458
42
0.033162
0
VERTEX
8
1
10
2.963812
20
3.241943
42
0.584681
0
VERTEX
8
1
10
2.971985
20
3.218292
42
-0.049293
0
VERTEX
8
1
10
3.129534
20
3.147110
42
-0.150975
0
VERTEX
8
1
10
3.023350
20
2.929642
42
-0.145393
0
VERTEX
8
1
10
2.945887
20
2.897461
0
VERTEX
8
1
10
2.939249
20
2.885254
42
0.130416
0
VERTEX
8
1
10
3.009809
20
2.768143
42
0.213453
0
VERTEX
8
1
10
3.065050
20
2.758179
0
VERTEX
8
1
10
3.069300
20
2.753189
42
-0.148929
0
VERTEX
8
1
10
3.027010
20
2.652924
42
-0.129422
0
VERTEX
8
1
10
2.793055
20
2.445572
0
VERTEX
8
1
10
2.796303
20
2.479263
42
0.125638
0
VERTEX
8
1
10
2.682388
20
2.457153
42
-0.215222
0
VERTEX
8
1
10
2.492657
20
2.486801
0
VERTEX
8
1
10
2.465197
20
2.503464
0
VERTEX
8
1
10
2.439077
20
2.522171
0
VERTEX
8
1
10
2.435982
20
2.543213
42
0.050029
0
VERTEX
8
1
10
2.624378
20
2.650818
42
0.119660
0
VERTEX
8
1
10
2.659769
20
2.703293
0
VERTEX
8
1
10
2.657852
20
2.719971
0
VERTEX
8
1
10
2.647404
20
2.736191
0
VERTEX
8
1
10
2.627394
20
2.751755
42
0.018351
0
VERTEX
8
1
10
2.332646
20
2.848778
42
-0.023726
0
VERTEX
8
1
10
2.277336
20
2.873856
0
VERTEX
8
1
10
2.272743
20
2.881180
0
VERTEX
8
1
10
2.276056
20
2.888016
0
VERTEX
8
1
10
2.288031
20
2.894379
0
VERTEX
8
1
10
2.403696
20
2.925079
42
0.122708
0
VERTEX
8
1
10
2.483715
20
2.962662
0
VERTEX
8
1
10
2.485710
20
2.971664
0
VERTEX
8
1
10
2.480989
20
2.981308
0
VERTEX
8
1
10
2.468674
20
2.991653
0
VERTEX
8
1
10
2.447887
20
3.002747
42
-0.061577
0
VERTEX
8
1
10
2.240159
20
3.103500
42
-0.539500
0
VERTEX
8
1
10
2.251339
20
3.137344
0
VERTEX
8
1
10
2.270493
20
3.144104
42
0.051221
0
VERTEX
8
1
10
2.591328
20
3.246597
0
VERTEX
8
1
10
2.613991
20
3.260574
0
VERTEX
8
1
10
2.628176
20
3.274078
0
VERTEX
8
1
10
2.632280
20
3.286850
0
VERTEX
8
1
10
2.624701
20
3.298599
0
VERTEX
8
1
10
2.603832
20
3.309051
42
-0.003240
0
VERTEX
8
1
10
2.373049
20
3.363967
0
VERTEX
8
1
10
2.355963
20
3.371918
0
VERTEX
8
1
10
2.339893
20
3.381760
0
VERTEX
8
1
10
2.336025
20
3.389786
0
VERTEX
8
1
10
2.338827
20
3.398529
42
-0.152529
0
VERTEX
8
1
10
2.392281
20
3.429541
42
0.140920
0
VERTEX
8
1
10
2.534954
20
3.554733
42
0.402120
0
VERTEX
8
1
10
2.524023
20
3.571365
0
VERTEX
8
1
10
2.510187
20
3.571716
0
VERTEX
8
1
10
2.490215
20
3.567764
42
-0.049815
0
VERTEX
8
1
10
2.213612
20
3.508209
42
-0.070882
0
VERTEX
8
1
10
2.119259
20
3.664871
42
-0.432244
0
VERTEX
8
1
10
2.149399
20
3.700760
42
0.165757
0
VERTEX
8
1
10
2.312290
20
3.796890
42
0.362178
0
VERTEX
8
1
10
2.300375
20
3.829575
0
VERTEX
8
1
10
2.282797
20
3.837616
0
VERTEX
8
1
10
2.190908
20
3.859619
42
-0.258738
0
VERTEX
8
1
10
2.089933
20
3.946960
42
-0.119467
0
VERTEX
8
1
10
2.056152
20
4.109390
42
0.028043
0
VERTEX
8
1
10
2.020061
20
4.396530
0
VERTEX
8
1
10
2.012621
20
4.413010
0
VERTEX
8
1
10
2.004675
20
4.415543
0
VERTEX
8
1
10
1.996258
20
4.401535
0
VERTEX
8
1
10
1.977814
20
4.336060
0
VERTEX
8
1
10
1.918118
20
4.159622
42
0.142589
0
VERTEX
8
1
10
1.904446
20
3.894729
42
-0.008261
0
VERTEX
8
1
10
1.953255
20
3.639969
42
-0.170225
0
VERTEX
8
1
10
1.942173
20
3.594742
42
0.091961
0
VERTEX
8
1
10
1.695301
20
3.463941
42
0.117876
0
VERTEX
8
1
10
1.679327
20
3.430084
0
VERTEX
8
1
10
1.686562
20
3.415863
0
VERTEX
8
1
10
1.705891
20
3.403793
42
-0.052973
0
VERTEX
8
1
10
1.953619
20
3.321823
0
VERTEX
8
1
10
1.961392
20
3.314621
42
-0.658197
0
VERTEX
8
1
10
1.949181
20
3.266846
42
-0.067020
0
VERTEX
8
1
10
1.898478
20
3.242691
42
0.018615
0
VERTEX
8
1
10
1.623936
20
3.148071
42
0.151554
0
VERTEX
8
1
10
1.586548
20
3.109268
0
VERTEX
8
1
10
1.590696
20
3.093170
0
VERTEX
8
1
10
1.608049
20
3.076309
42
0.018277
0
VERTEX
8
1
10
1.878237
20
2.952286
42
-0.136258
0
VERTEX
8
1
10
1.913345
20
2.911545
42
-0.364614
0
VERTEX
8
1
10
1.886093
20
2.865662
42
-0.068152
0
VERTEX
8
1
10
1.715792
20
2.820694
42
0.027742
0
VERTEX
8
1
10
1.504572
20
2.770920
0
VERTEX
8
1
10
1.479347
20
2.758530
0
VERTEX
8
1
10
1.465763
20
2.744781
0
VERTEX
8
1
10
1.466059
20
2.729385
0
VERTEX
8
1
10
1.482061
20
2.712143
0
VERTEX
8
1
10
1.587164
20
2.641174
42
-0.128678
0
VERTEX
8
1
10
1.682682
20
2.557098
42
-0.369637
0
VERTEX
8
1
10
1.660789
20
2.507385
42
-0.102402
0
VERTEX
8
1
10
1.489878
20
2.456589
42
-0.012391
0
VERTEX
8
1
10
1.127027
20
2.435469
42
0.040738
0
VERTEX
8
1
10
1.085716
20
2.423828
0
VERTEX
8
1
10
1.078911
20
2.412903
0
VERTEX
8
1
10
1.085716
20
2.398102
42
0.169267
0
VERTEX
8
1
10
1.260413
20
2.323071
42
-0.249126
0
VERTEX
8
1
10
1.257895
20
2.318756
42
-0.032429
0
VERTEX
8
1
10
1.085398
20
2.157181
42
0.037183
0
VERTEX
8
1
10
0.957537
20
2.016159
0
VERTEX
8
1
10
0.946905
20
1.993393
0
VERTEX
8
1
10
0.946711
20
1.976074
0
VERTEX
8
1
10
0.958765
20
1.965347
0
VERTEX
8
1
10
0.984886
20
1.962341
42
0.102727
0
VERTEX
8
1
10
1.252422
20
2.056152
42
-0.026148
0
VERTEX
8
1
10
1.389730
20
2.120316
42
-0.312745
0
VERTEX
8
1
10
1.407835
20
2.106171
0
VERTEX
8
1
10
1.406946
20
2.088272
0
VERTEX
8
1
10
1.382685
20
1.952835
42
0.129391
0
VERTEX
8
1
10
1.385233
20
1.856995
42
0.436041
0
VERTEX
8
1
10
1.417953
20
1.851242
0
VERTEX
8
1
10
1.439547
20
1.863998
0
VERTEX
8
1
10
1.466991
20
1.886765
42
-0.023283
0
VERTEX
8
1
10
1.810734
20
2.178391
0
VERTEX
8
1
10
1.837366
20
2.195160
0
VERTEX
8
1
10
1.857248
20
2.204147
0
VERTEX
8
1
10
1.869173
20
2.204056
0
VERTEX
8
1
10
1.871927
20
2.193649
0
VERTEX
8
1
10
1.832291
20
2.098801
42
-0.183867
0
VERTEX
8
1
10
1.643172
20
1.910075
42
-0.019453
0
VERTEX
8
1
10
1.587418
20
1.881424
42
0.444830
0
VERTEX
8
1
10
1.629145
20
1.800980
42
0.039632
0
VERTEX
8
1
10
1.740026
20
1.771133
42
-0.116382
0
VERTEX
8
1
10
1.605902
20
1.691254
42
-0.107396
0
VERTEX
8
1
10
1.101326
20
1.604477
0
VERTEX
8
1
10
1.087225
20
1.574890
42
0.464885
0
VERTEX
8
1
10
1.154316
20
1.448024
42
0.044352
0
VERTEX
8
1
10
1.184692
20
1.438217
42
-0.132113
0
VERTEX
8
1
10
0.898474
20
1.291199
42
-0.044097
0
VERTEX
8
1
10
0.714012
20
1.257462
42
0.130680
0
VERTEX
8
1
10
1.075665
20
1.151459
42
0.105099
0
VERTEX
8
1
10
1.560295
20
1.216492
0
VERTEX
8
1
10
1.576431
20
1.212036
0
VERTEX
8
1
10
1.584337
20
1.199738
0
VERTEX
8
1
10
1.585520
20
1.181076
42
-0.045241
0
VERTEX
8
1
10
1.541118
20
1.035481
42
0.081887
0
VERTEX
8
1
10
1.533175
20
0.983818
42
0.410585
0
VERTEX
8
1
10
1.560453
20
0.970932
0
VERTEX
8
1
10
1.587532
20
0.980179
42
0.099219
0
VERTEX
8
1
10
1.865744
20
1.202606
42
0.139631
0
VERTEX
8
1
10
1.936419
20
1.062714
42
0.350398
0
VERTEX
8
1
10
1.993919
20
1.075348
42
0.127769
0
VERTEX
8
1
10
2.074080
20
1.174820
42
0.099826
0
VERTEX
8
1
10
2.317186
20
1.007248
42
0.130357
0
VERTEX
8
1
10
2.377819
20
1.007401
42
0.140477
0
VERTEX
8
1
10
2.366842
20
1.114456
42
-0.151604
0
VERTEX
8
1
10
2.369511
20
1.174927
42
-0.269447
0
VERTEX
8
1
10
2.405205
20
1.189774
42
-0.104746
0
VERTEX
8
1
10
2.520775
20
1.145416
42
0.061325
0
VERTEX
8
1
10
2.699259
20
1.085922
0
VERTEX
8
1
10
2.702681
20
1.078568
0
VERTEX
8
1
10
2.702457
20
1.059509
42
0.712901
0
VERTEX
8
1
10
2.733810
20
1.046967
42
0.062748
0
VERTEX
8
1
10
2.780500
20
1.076599
0
VERTEX
8
1
10
2.788237
20
1.078201
0
VERTEX
8
1
10
2.796114
20
1.077606
0
VERTEX
8
1
10
2.792822
20
1.086655
42
0.028634
0
VERTEX
8
1
10
2.922869
20
1.209610
0
VERTEX
8
1
10
2.931349
20
1.211090
42
0.023977
0
VERTEX
8
1
10
3.045261
20
1.208054
0
VERTEX
8
1
10
3.050640
20
1.198257
42
0.136448
0
VERTEX
8
1
10
3.096983
20
1.112076
42
0.348602
0
VERTEX
8
1
10
3.114536
20
1.117737
42
0.058796
0
VERTEX
8
1
10
3.168350
20
1.219162
0
VERTEX
8
1
10
3.173109
20
1.222076
0
VERTEX
8
1
10
3.239771
20
1.241348
42
0.066387
0
VERTEX
8
1
10
3.384735
20
1.085098
42
0.459704
0
VERTEX
8
1
10
3.407156
20
1.097229
0
VERTEX
8
1
10
3.407902
20
1.113007
42
-0.065389
0
VERTEX
8
1
10
3.399794
20
1.347488
42
-0.553543
0
VERTEX
8
1
10
3.437561
20
1.344330
0
VERTEX
8
1
10
3.508694
20
1.261642
42
0.149026
0
VERTEX
8
1
10
3.699856
20
1.136444
0
VERTEX
8
1
10
3.714134
20
1.145447
42
0.089310
0
VERTEX
8
1
10
3.685108
20
1.272690
42
-0.070168
0
VERTEX
8
1
10
3.669540
20
1.362946
42
-0.447595
0
VERTEX
8
1
10
3.692993
20
1.371002
42
0.115451
0
VERTEX
8
1
10
4.095308
20
1.320099
0
VERTEX
8
1
10
4.134573
20
1.328598
0
VERTEX
8
1
10
4.172289
20
1.341064
0
VERTEX
8
1
10
4.180792
20
1.335846
42
-0.169998
0
VERTEX
8
1
10
3.946877
20
1.124725
0
VERTEX
8
1
10
3.933857
20
1.112350
42
0.406736
0
VERTEX
8
1
10
3.984308
20
1.050919
0
VERTEX
8
1
10
3.990376
20
1.048752
42
-0.247795
0
VERTEX
8
1
10
3.765312
20
0.881336
42
-0.072644
0
VERTEX
8
1
10
3.605721
20
0.867340
0
VERTEX
8
1
10
3.581772
20
0.857819
42
0.175053
0
VERTEX
8
1
10
3.716873
20
0.787445
42
0.169574
0
VERTEX
8
1
10
4.068829
20
0.831146
0
VERTEX
8
1
10
4.084614
20
0.831284
42
0.091440
0
VERTEX
8
1
10
4.046255
20
0.629150
42
0.396807
0
VERTEX
8
1
10
4.066103
20
0.619568
0
VERTEX
8
1
10
4.080000
20
0.627000
42
-0.010021
0
VERTEX
8
1
10
4.337366
20
0.827148
42
-0.141312
0
VERTEX
8
1
10
4.426968
20
0.657394
42
-0.139897
0
VERTEX
8
1
10
4.414186
20
0.600861
0
VERTEX
8
1
10
4.421621
20
0.603287
42
0.135518
0
VERTEX
8
1
10
4.587790
20
0.854736
42
0.070005
0
VERTEX
8
1
10
4.636465
20
0.709549
0
VERTEX
8
1
10
4.646139
20
0.697586
42
0.457995
0
VERTEX
8
1
10
4.678757
20
0.695770
42
0.124966
0
VERTEX
8
1
10
4.754999
20
0.868637
42
0.132142
0
VERTEX
8
1
10
4.966454
20
0.659363
0
VERTEX
8
1
10
5.001225
20
0.645218
0
VERTEX
8
1
10
5.037930
20
0.635941
0
VERTEX
8
1
10
5.055210
20
0.644135
42
-0.014570
0
VERTEX
8
1
10
4.963116
20
0.824036
42
-0.176076
0
VERTEX
8
1
10
4.963509
20
0.897812
42
-0.235178
0
VERTEX
8
1
10
4.996275
20
0.906769
0
VERTEX
8
1
10
4.999357
20
0.897842
42
0.073633
0
VERTEX
8
1
10
5.035196
20
0.720261
42
0.663685
0
VERTEX
8
1
10
5.078596
20
0.721924
42
0.050895
0
VERTEX
8
1
10
5.166872
20
0.890305
0
VERTEX
8
1
10
5.173725
20
0.900467
42
0.111642
0
VERTEX
8
1
10
5.277447
20
0.950623
0
VERTEX
8
1
10
5.286072
20
0.951218
42
0.156080
0
VERTEX
8
1
10
5.379038
20
0.880615
42
0.302486
0
VERTEX
8
1
10
5.416853
20
0.902069
42
-0.151987
0
VERTEX
8
1
10
5.560295
20
1.063492
42
0.109020
0
VERTEX
8
1
10
5.658075
20
0.937241
42
0.498164
0
VERTEX
8
1
10
5.722736
20
0.969472
42
0.063475
0
VERTEX
8
1
10
5.730967
20
0.993683
0
VERTEX
8
1
10
5.747080
20
1.077072
42
-0.525101
0
VERTEX
8
1
10
5.769892
20
1.091034
42
0.042107
0
VERTEX
8
1
10
5.953259
20
1.034821
0
VERTEX
8
1
10
5.966909
20
1.027969
42
-0.173424
0
VERTEX
8
1
10
5.665813
20
0.851944
42
0.207429
0
VERTEX
8
1
10
5.748495
20
0.810959
42
0.117984
0
VERTEX
8
1
10
6.080427
20
0.846924
42
0.100601
0
VERTEX
8
1
10
6.051195
20
0.703888
0
VERTEX
8
1
10
6.054865
20
0.699631
0
VERTEX
8
1
10
6.060638
20
0.699387
0
VERTEX
8
1
10
6.078579
20
0.711243
42
0.037479
0
VERTEX
8
1
10
6.199108
20
0.841400
42
0.108499
0
VERTEX
8
1
10
6.286579
20
0.699524
42
0.412115
0
VERTEX
8
1
10
6.329233
20
0.714050
42
0.048717
0
VERTEX
8
1
10
6.428282
20
0.855347
42
0.117451
0
VERTEX
8
1
10
6.622786
20
0.761185
0
VERTEX
8
1
10
6.641884
20
0.761505
0
SEQEND
0
POLYLINE
8
1
66
1
70
1
0
VERTEX
8
1
10
2.825516
20
2.074371
0
VERTEX
8
1
10
2.804090
20
2.048538
42
-0.282555
0
VERTEX
8
1
10
2.784811
20
2.074432
0
VERTEX
8
1
10
2.792625
20
2.078171
0
VERTEX
8
1
10
2.824793
20
2.076691
0
SEQEND
0
POLYLINE
8
1
66
1
70
1
0
VERTEX
8
1
10
2.962942
20
1.688690
0
VERTEX
8
1
10
2.884356
20
1.623489
0
VERTEX
8
1
10
2.854649
20
1.627060
42
-0.065184
0
VERTEX
8
1
10
2.609978
20
1.728592
42
-0.092417
0
VERTEX
8
1
10
2.554848
20
1.786972
0
VERTEX
8
1
10
2.546322
20
1.813080
0
VERTEX
8
1
10
2.546305
20
1.841492
42
-0.014633
0
VERTEX
8
1
10
2.837259
20
1.792831
42
0.075815
0
VERTEX
8
1
10
2.951778
20
1.799500
42
-0.222891
0
VERTEX
8
1
10
2.827253
20
1.744278
42
0.250606
0
VERTEX
8
1
10
2.876398
20
1.704407
42
0.087448
0
SEQEND
0
POLYLINE
8
1
66
1
70
1
0
VERTEX
8
1
10
2.902742
20
1.958160
42
0.022357
0
VERTEX
8
1
10
3.032415
20
1.980377
42
-0.004047
0
VERTEX
8
1
10
2.989908
20
1.861130
42
0.068778
0
SEQEND
0
POLYLINE
8
1
66
1
70
1
0
VERTEX
8
1
10
2.729258
20
1.176651
42
-0.116748
0
VERTEX
8
1
10
2.703810
20
1.215393
0
VERTEX
8
1
10
2.704458
20
1.223709
0
VERTEX
8
1
10
2.711580
20
1.229263
0
VERTEX
8
1
10
2.726322
20
1.231735
0
VERTEX
8
1
10
2.749828
20
1.230820
0
SEQEND
0
POLYLINE
8
1
66
1
70
1
0
VERTEX
8
1
10
3.802614
20
1.615784
0
VERTEX
8
1
10
3.796305
20
1.633148
0
VERTEX
8
1
10
3.834574
20
1.637665
0
SEQEND
0
POLYLINE
8
1
66
1
70
1
0
VERTEX
8
1
10
3.873676
20
1.535049
42
0.032461
0
VERTEX
8
1
10
3.962973
20
1.563705
42
-0.099757
0
VERTEX
8
1
10
4.019791
20
1.459244
42
-0.058064
0
SEQEND
0
POLYLINE
8
1
66
1
70
1
0
VERTEX
8
1
10
3.773834
20
1.819092
42
-0.183872
0
VERTEX
8
1
10
3.686720
20
1.938446
0
VERTEX
8
1
10
3.745457
20
1.928818
42
0.207490
0
VERTEX
8
1
10
3.915792
20
1.841568
0
VERTEX
8
1
10
3.920151
20
1.835022
0
VERTEX
8
1
10
3.907578
20
1.748428
0
VERTEX
8
1
10
3.891432
20
1.749786
42
-0.039966
0
SEQEND
0
POLYLINE
8
1
66
1
70
1
0
VERTEX
8
1
10
4.098635
20
1.428864
42
0.040893
0
VERTEX
8
1
10
4.226860
20
1.688705
0
VERTEX
8
1
10
4.228167
20
1.613235
42
-0.087413
0
VERTEX
8
1
10
4.201876
20
1.386276
42
0.029712
0
SEQEND
0
POLYLINE
8
1
66
1
70
1
0
VERTEX
8
1
10
4.994677
20
2.197281
42
-0.254224
0
VERTEX
8
1
10
4.976337
20
2.028656
42
-0.181404
0
VERTEX
8
1
10
4.810192
20
2.174820
42
0.122476
0
VERTEX
8
1
10
4.989153
20
2.198410
0
SEQEND
0
POLYLINE
8
1
66
1
70
1
0
VERTEX
8
1
10
4.991236
20
1.687820
42
-0.082740
0
VERTEX
8
1
10
5.021667
20
1.703094
0
VERTEX
8
1
10
5.105183
20
1.715607
42
-0.030777
0
VERTEX
8
1
10
5.055803
20
1.609818
0
VERTEX
8
1
10
5.039663
20
1.605957
42
-0.089238
0
VERTEX
8
1
10
4.945108
20
1.656143
0
VERTEX
8
1
10
4.940035
20
1.663483
0
SEQEND
0
POLYLINE
8
1
66
1
0
VERTEX
8
1
10
5.237648
20
1.025070
0
VERTEX
8
1
10
5.240446
20
1.022659
0
VERTEX
8
1
10
5.237648
20
1.025070
0
SEQEND
0
POLYLINE
8
1
66
1
70
1
0
VERTEX
8
1
10
6.036451
20
1.783051
42
-0.054194
0
VERTEX
8
1
10
6.226431
20
1.695923
0
VERTEX
8
1
10
6.218889
20
1.680099
42
-0.089085
0
VERTEX
8
1
10
5.987680
20
1.686752
42
-0.144925
0
VERTEX
8
1
10
5.881893
20
1.759766
0
VERTEX
8
1
10
5.898455
20
1.768875
42
0.043859
0
VERTEX
8
1
10
6.030178
20
1.822891
42
0.577309
0
SEQEND
0
ENDSEC
0
EOF
