0
SECTION
2
HEADER
9
$EXTMIN
10
0.479050
20
0.453590
9
$EXTMAX
10
18.165367
20
23.848831
0
ENDSEC
0
SECTION
2
TABLES
0
TABLE
2
LTYPE
70
1
0
LTYPE
2
0
70
0
3
Solid Line
72
65
73
0
40
0.0
0
ENDTAB
0
TABLE
2
LAYER
70
1
0
LAYER
2
1
70
0
62
7
6
0
0
ENDTAB
0
ENDSEC
0
SECTION
2
BLOCKS
0
ENDSEC
0
SECTION
2
ENTITIES
0
POLYLINE
8
1
66
1
70
1
0
VERTEX
8
1
10
6.165497
20
17.045654
0
VERTEX
8
1
10
6.255356
20
17.045692
0
VERTEX
8
1
10
6.255356
20
17.555298
0
VERTEX
8
1
10
6.256180
20
17.555534
0
VERTEX
8
1
10
7.017258
20
17.555534
0
VERTEX
8
1
10
7.017250
20
17.814873
0
VERTEX
8
1
10
7.018471
20
17.815071
0
VERTEX
8
1
10
7.578186
20
17.815071
0
VERTEX
8
1
10
7.578178
20
17.666679
0
VERTEX
8
1
10
7.398209
20
17.666435
0
VERTEX
8
1
10
7.398201
20
16.990150
42
0.194065
0
VERTEX
8
1
10
7.239693
20
16.918098
42
0.110870
0
VERTEX
8
1
10
7.068390
20
16.633835
42
0.088604
0
VERTEX
8
1
10
6.943222
20
15.831894
42
0.077900
0
VERTEX
8
1
10
7.052620
20
15.103027
42
0.100436
0
VERTEX
8
1
10
7.217514
20
14.797318
42
0.195124
0
VERTEX
8
1
10
7.390747
20
14.703789
0
VERTEX
8
1
10
7.398209
20
14.701508
0
VERTEX
8
1
10
7.398216
20
14.026482
0
VERTEX
8
1
10
7.578087
20
14.026482
0
VERTEX
8
1
10
7.578018
20
13.846504
0
VERTEX
8
1
10
7.017609
20
13.846504
0
VERTEX
8
1
10
7.017258
20
13.847359
0
VERTEX
8
1
10
7.017258
20
14.136421
0
VERTEX
8
1
10
7.016815
20
14.137466
0
VERTEX
8
1
10
6.255386
20
14.137466
0
VERTEX
8
1
10
6.255325
20
14.647346
0
VERTEX
8
1
10
6.165367
20
14.647346
0
VERTEX
8
1
10
6.165359
20
13.847992
0
VERTEX
8
1
10
6.164070
20
13.846504
0
VERTEX
8
1
10
5.406181
20
13.846497
0
VERTEX
8
1
10
5.406181
20
13.756554
0
VERTEX
8
1
10
5.916061
20
13.756500
0
VERTEX
8
1
10
5.916061
20
12.995125
0
VERTEX
8
1
10
5.917053
20
12.994614
0
VERTEX
8
1
10
6.206116
20
12.994614
0
VERTEX
8
1
10
6.207031
20
12.994308
0
VERTEX
8
1
10
6.207031
20
12.433884
0
VERTEX
8
1
10
6.206551
20
12.433685
0
VERTEX
8
1
10
6.027046
20
12.433769
0
VERTEX
8
1
10
6.027039
20
12.613647
0
VERTEX
8
1
10
5.352127
20
12.613663
0
VERTEX
8
1
10
5.349754
20
12.620293
42
0.172648
0
VERTEX
8
1
10
5.288582
20
12.761063
0
VERTEX
8
1
10
5.256989
20
12.793648
42
0.100709
0
VERTEX
8
1
10
4.951973
20
12.958748
0
VERTEX
8
1
10
4.884491
20
12.980156
0
VERTEX
8
1
10
4.813004
20
12.999527
42
0.119395
0
VERTEX
8
1
10
3.554810
20
12.987366
42
0.084380
0
VERTEX
8
1
10
3.209518
20
12.835899
42
0.156743
0
VERTEX
8
1
10
3.072769
20
12.669762
0
VERTEX
8
1
10
3.065239
20
12.633514
0
VERTEX
8
1
10
3.063446
20
12.613663
0
VERTEX
8
1
10
2.387108
20
12.613655
0
VERTEX
8
1
10
2.386818
20
12.433685
0
VERTEX
8
1
10
2.207031
20
12.433685
0
VERTEX
8
1
10
2.207230
20
12.994614
0
VERTEX
8
1
10
2.497986
20
12.994621
0
VERTEX
8
1
10
2.497993
20
13.755600
0
VERTEX
8
1
10
2.498215
20
13.756516
0
VERTEX
8
1
10
3.007813
20
13.756508
0
VERTEX
8
1
10
3.007866
20
13.846344
0
VERTEX
8
1
10
2.165359
20
13.846634
0
VERTEX
8
1
10
2.165359
20
14.615669
0
VERTEX
8
1
10
2.164963
20
14.615913
0
VERTEX
8
1
10
2.075592
20
14.615913
0
VERTEX
8
1
10
2.075378
20
14.615356
0
VERTEX
8
1
10
2.075378
20
14.106087
0
VERTEX
8
1
10
1.315742
20
14.106033
0
VERTEX
8
1
10
1.313477
20
14.105804
0
VERTEX
8
1
10
1.313477
20
13.846512
0
VERTEX
8
1
10
0.752548
20
13.846581
0
VERTEX
8
1
10
0.752548
20
13.995049
0
VERTEX
8
1
10
0.932259
20
13.995049
0
VERTEX
8
1
10
0.932518
20
13.995491
0
VERTEX
8
1
10
0.932518
20
14.672127
42
0.170622
0
VERTEX
8
1
10
1.068314
20
14.723984
0
VERTEX
8
1
10
1.101318
20
14.753441
42
0.105844
0
VERTEX
8
1
10
1.269699
20
15.047653
0
VERTEX
8
1
10
1.291801
20
15.113663
0
VERTEX
8
1
10
1.311882
20
15.183784
42
0.119464
0
VERTEX
8
1
10
1.312943
20
16.442322
42
0.080967
0
VERTEX
8
1
10
1.165184
20
16.797424
42
0.147611
0
VERTEX
8
1
10
1.001068
20
16.945045
0
VERTEX
8
1
10
0.965111
20
16.955040
0
VERTEX
8
1
10
0.932518
20
16.957970
0
VERTEX
8
1
10
0.932518
20
17.634567
0
VERTEX
8
1
10
0.932320
20
17.635086
0
VERTEX
8
1
10
0.752548
20
17.635086
0
VERTEX
8
1
10
0.752556
20
17.814934
0
VERTEX
8
1
10
1.313469
20
17.815071
0
VERTEX
8
1
10
1.313469
20
17.524445
0
VERTEX
8
1
10
1.315392
20
17.524101
0
VERTEX
8
1
10
2.075378
20
17.524063
0
VERTEX
8
1
10
2.075546
20
17.014229
0
VERTEX
8
1
10
2.165359
20
17.014374
0
VERTEX
8
1
10
2.165367
20
23.833046
0
VERTEX
8
1
10
2.170837
20
23.846504
0
VERTEX
8
1
10
14.165359
20
23.846535
0
VERTEX
8
1
10
14.165359
20
23.848824
0
VERTEX
8
1
10
18.161255
20
23.848831
0
VERTEX
8
1
10
18.165359
20
23.832390
0
VERTEX
8
1
10
18.165367
20
17.871895
0
VERTEX
8
1
10
18.163383
20
17.848824
0
VERTEX
8
1
10
14.165359
20
17.848763
0
VERTEX
8
1
10
14.165359
20
17.846504
0
VERTEX
8
1
10
6.166237
20
17.846497
0
VERTEX
8
1
10
6.165359
20
17.842659
0
SEQEND
0
POLYLINE
8
1
66
1
70
1
0
VERTEX
8
1
10
1.358681
20
16.912682
0
VERTEX
8
1
10
1.518486
20
17.005119
0
VERTEX
8
1
10
1.677200
20
16.878822
0
VERTEX
8
1
10
1.670868
20
17.078194
0
VERTEX
8
1
10
1.794525
20
17.189255
0
VERTEX
8
1
10
1.606407
20
17.212654
0
VERTEX
8
1
10
1.487938
20
17.392761
0
VERTEX
8
1
10
1.439140
20
17.251816
0
VERTEX
8
1
10
1.232376
20
17.254845
0
VERTEX
8
1
10
1.394447
20
17.106018
0
SEQEND
0
POLYLINE
8
1
66
1
70
1
0
VERTEX
8
1
10
1.566406
20
14.224243
0
VERTEX
8
1
10
1.566406
20
16.363129
0
VERTEX
8
1
10
1.455292
20
16.363129
0
VERTEX
8
1
10
1.455292
20
14.224243
0
SEQEND
0
POLYLINE
8
1
66
1
70
1
0
VERTEX
8
1
10
1.521141
20
16.666618
0
VERTEX
8
1
10
1.649391
20
16.548851
0
VERTEX
8
1
10
1.621086
20
16.395874
0
VERTEX
8
1
10
1.747536
20
16.469009
0
VERTEX
8
1
10
1.873123
20
16.369080
0
VERTEX
8
1
10
1.868118
20
16.526833
0
VERTEX
8
1
10
1.965965
20
16.614716
0
VERTEX
8
1
10
1.817108
20
16.633232
0
VERTEX
8
1
10
1.723366
20
16.775749
0
VERTEX
8
1
10
1.684753
20
16.664215
0
SEQEND
0
POLYLINE
8
1
66
1
70
1
0
VERTEX
8
1
10
1.760849
20
14.224243
0
VERTEX
8
1
10
1.760849
20
16.131645
0
VERTEX
8
1
10
1.649734
20
16.131645
0
VERTEX
8
1
10
1.649734
20
14.224243
0
SEQEND
0
POLYLINE
8
1
66
1
70
1
0
VERTEX
8
1
10
1.955292
20
14.224243
0
VERTEX
8
1
10
1.955292
20
15.893219
0
VERTEX
8
1
10
1.844185
20
15.893219
0
VERTEX
8
1
10
1.844185
20
14.224243
0
SEQEND
0
POLYLINE
8
1
66
1
70
1
0
VERTEX
8
1
10
1.968307
20
16.033539
0
VERTEX
8
1
10
1.965752
20
16.113831
0
VERTEX
8
1
10
2.015556
20
16.158562
0
VERTEX
8
1
10
1.939796
20
16.167976
0
VERTEX
8
1
10
1.892090
20
16.240509
0
VERTEX
8
1
10
1.872437
20
16.183746
0
VERTEX
8
1
10
1.789162
20
16.184975
0
VERTEX
8
1
10
1.854439
20
16.125038
0
VERTEX
8
1
10
1.840034
20
16.047180
0
VERTEX
8
1
10
1.904381
20
16.084404
0
SEQEND
0
POLYLINE
8
1
66
1
70
1
0
VERTEX
8
1
10
2.165359
20
14.795891
0
VERTEX
8
1
10
2.165359
20
16.834244
0
VERTEX
8
1
10
2.075378
20
16.834244
0
VERTEX
8
1
10
2.075378
20
14.795891
0
SEQEND
0
POLYLINE
8
1
66
1
70
1
0
VERTEX
8
1
10
3.387497
20
22.804359
42
-0.042925
0
VERTEX
8
1
10
5.759903
20
23.285927
42
0.137512
0
VERTEX
8
1
10
5.722435
20
23.560333
0
VERTEX
8
1
10
5.720901
20
23.560249
42
0.038096
0
VERTEX
8
1
10
3.333534
20
23.081871
42
0.025938
0
VERTEX
8
1
10
2.477722
20
22.788422
0
VERTEX
8
1
10
2.472603
20
22.782822
0
VERTEX
8
1
10
2.468292
20
22.776192
42
0.154982
0
VERTEX
8
1
10
2.462837
20
22.650093
42
0.037237
0
VERTEX
8
1
10
2.496422
20
22.514114
42
-0.019044
0
SEQEND
0
POLYLINE
8
1
66
1
70
1
0
VERTEX
8
1
10
5.746658
20
20.567345
0
VERTEX
8
1
10
5.667976
20
20.735191
0
VERTEX
8
1
10
5.807564
20
20.893974
0
VERTEX
8
1
10
5.609261
20
20.891998
0
VERTEX
8
1
10
5.509216
20
21.021049
0
VERTEX
8
1
10
5.469086
20
20.828690
0
VERTEX
8
1
10
5.278328
20
20.711617
0
VERTEX
8
1
10
5.415154
20
20.657845
0
VERTEX
8
1
10
5.394150
20
20.448250
0
VERTEX
8
1
10
5.554970
20
20.609039
0
SEQEND
0
POLYLINE
8
1
66
1
70
1
0
VERTEX
8
1
10
5.441460
20
19.973206
0
VERTEX
8
1
10
5.348412
20
20.140945
0
VERTEX
8
1
10
5.475647
20
20.307877
0
VERTEX
8
1
10
5.274689
20
20.300972
0
VERTEX
8
1
10
5.163986
20
20.429306
0
VERTEX
8
1
10
5.140640
20
20.233444
0
VERTEX
8
1
10
4.958694
20
20.108528
0
VERTEX
8
1
10
5.101349
20
20.057159
0
VERTEX
8
1
10
5.098312
20
19.841957
0
VERTEX
8
1
10
5.246880
20
20.010658
0
SEQEND
0
POLYLINE
8
1
66
1
70
1
0
VERTEX
8
1
10
5.041458
20
19.228081
0
VERTEX
8
1
10
4.954872
20
19.400833
0
VERTEX
8
1
10
5.088814
20
19.571953
0
VERTEX
8
1
10
4.888527
20
19.563423
0
VERTEX
8
1
10
4.783104
20
19.694008
0
VERTEX
8
1
10
4.751320
20
19.492867
0
VERTEX
8
1
10
4.563553
20
19.363625
0
VERTEX
8
1
10
4.704483
20
19.311722
0
VERTEX
8
1
10
4.692429
20
19.093262
0
VERTEX
8
1
10
4.846703
20
19.265465
0
SEQEND
0
POLYLINE
8
1
66
1
70
1
0
VERTEX
8
1
10
4.286316
20
19.044540
0
VERTEX
8
1
10
4.199234
20
19.224602
0
VERTEX
8
1
10
4.333961
20
19.403946
0
VERTEX
8
1
10
4.132401
20
19.394096
0
VERTEX
8
1
10
4.027283
20
19.528778
0
VERTEX
8
1
10
3.995499
20
19.320076
0
VERTEX
8
1
10
3.806198
20
19.184006
0
VERTEX
8
1
10
3.948532
20
19.130234
0
VERTEX
8
1
10
3.936485
20
18.903824
0
VERTEX
8
1
10
4.090477
20
19.082794
0
SEQEND
0
POLYLINE
8
1
66
1
70
1
0
VERTEX
8
1
10
3.551979
20
18.800697
0
VERTEX
8
1
10
3.464424
20
18.987686
0
VERTEX
8
1
10
3.599815
20
19.175354
0
VERTEX
8
1
10
3.397186
20
19.163658
0
VERTEX
8
1
10
3.292305
20
19.302071
0
VERTEX
8
1
10
3.260536
20
19.085823
0
VERTEX
8
1
10
3.069862
20
18.942642
0
VERTEX
8
1
10
3.213425
20
18.887428
0
VERTEX
8
1
10
3.201416
20
18.653412
0
VERTEX
8
1
10
3.355064
20
18.839302
0
SEQEND
0
POLYLINE
8
1
66
1
70
1
0
VERTEX
8
1
10
3.043022
20
19.277229
0
VERTEX
8
1
10
2.948036
20
19.467316
0
VERTEX
8
1
10
3.077232
20
19.661446
0
VERTEX
8
1
10
2.873001
20
19.647911
0
VERTEX
8
1
10
2.763000
20
19.788078
0
VERTEX
8
1
10
2.739670
20
19.567574
0
VERTEX
8
1
10
2.553185
20
19.419014
0
VERTEX
8
1
10
2.700066
20
19.363503
0
VERTEX
8
1
10
2.697044
20
19.123672
0
VERTEX
8
1
10
2.844398
20
19.315193
0
SEQEND
0
POLYLINE
8
1
66
1
70
1
0
VERTEX
8
1
10
5.193932
20
22.461563
0
VERTEX
8
1
10
5.100891
20
22.629288
0
VERTEX
8
1
10
5.228134
20
22.796242
0
VERTEX
8
1
10
5.027168
20
22.789322
0
VERTEX
8
1
10
4.916466
20
22.917671
0
VERTEX
8
1
10
4.893135
20
22.721809
0
VERTEX
8
1
10
4.711166
20
22.596901
0
VERTEX
8
1
10
4.853836
20
22.545525
0
VERTEX
8
1
10
4.850792
20
22.330315
0
VERTEX
8
1
10
4.999352
20
22.499016
0
SEQEND
0
POLYLINE
8
1
66
1
70
1
0
VERTEX
8
1
10
5.352676
20
21.183792
0
VERTEX
8
1
10
5.266899
20
21.354347
0
VERTEX
8
1
10
5.401001
20
21.517174
0
VERTEX
8
1
10
5.200203
20
21.516182
0
VERTEX
8
1
10
5.094986
20
21.647652
0
VERTEX
8
1
10
5.063370
20
21.452759
0
VERTEX
8
1
10
4.876457
20
21.333588
0
VERTEX
8
1
10
5.016716
20
21.277893
0
VERTEX
8
1
10
5.004654
20
21.063019
0
VERTEX
8
1
10
5.159851
20
21.227043
0
SEQEND
0
POLYLINE
8
1
66
1
70
1
0
VERTEX
8
1
10
4.922089
20
20.449661
0
VERTEX
8
1
10
4.842972
20
20.625725
0
VERTEX
8
1
10
4.983681
20
20.792984
0
VERTEX
8
1
10
4.783615
20
20.790596
0
VERTEX
8
1
10
4.683975
20
20.924545
0
VERTEX
8
1
10
4.643921
20
20.724266
0
VERTEX
8
1
10
4.451248
20
20.600693
0
VERTEX
8
1
10
4.589745
20
20.544090
0
VERTEX
8
1
10
4.568741
20
20.325661
0
VERTEX
8
1
10
4.729378
20
20.493263
0
SEQEND
0
POLYLINE
8
1
66
1
70
1
0
VERTEX
8
1
10
4.161972
20
20.289825
0
VERTEX
8
1
10
4.082436
20
20.473351
0
VERTEX
8
1
10
4.224075
20
20.648697
0
VERTEX
8
1
10
4.022583
20
20.645477
0
VERTEX
8
1
10
3.923248
20
20.783730
0
VERTEX
8
1
10
3.883278
20
20.575989
0
VERTEX
8
1
10
3.688980
20
20.446007
0
VERTEX
8
1
10
3.828857
20
20.387123
0
VERTEX
8
1
10
3.807884
20
20.160553
0
VERTEX
8
1
10
3.968315
20
20.334763
0
SEQEND
0
POLYLINE
8
1
66
1
70
1
0
VERTEX
8
1
10
3.420609
20
20.070358
0
VERTEX
8
1
10
3.340698
20
20.261055
0
VERTEX
8
1
10
3.483109
20
20.444611
0
VERTEX
8
1
10
3.280434
20
20.440025
0
VERTEX
8
1
10
3.181351
20
20.582253
0
VERTEX
8
1
10
3.141434
20
20.367020
0
VERTEX
8
1
10
2.945686
20
20.230309
0
VERTEX
8
1
10
3.086807
20
20.169579
0
VERTEX
8
1
10
3.065865
20
19.935188
0
VERTEX
8
1
10
3.226006
20
20.116135
0
SEQEND
0
POLYLINE
8
1
66
1
70
1
0
VERTEX
8
1
10
3.393105
20
20.731606
0
VERTEX
8
1
10
3.547676
20
20.910049
0
VERTEX
8
1
10
3.742859
20
20.864685
0
VERTEX
8
1
10
3.656021
20
21.050850
0
VERTEX
8
1
10
3.791786
20
21.231133
0
VERTEX
8
1
10
3.588272
20
21.227547
0
VERTEX
8
1
10
3.483681
20
21.367744
0
VERTEX
8
1
10
3.452133
20
21.156815
0
VERTEX
8
1
10
3.261887
20
21.023376
0
VERTEX
8
1
10
3.405128
20
20.963448
0
SEQEND
0
POLYLINE
8
1
66
1
70
1
0
VERTEX
8
1
10
4.200027
20
20.923820
0
VERTEX
8
1
10
4.354935
20
21.094925
0
VERTEX
8
1
10
4.548935
20
21.050423
0
VERTEX
8
1
10
4.462616
20
21.228828
0
VERTEX
8
1
10
4.597626
20
21.400230
0
VERTEX
8
1
10
4.395378
20
21.398170
0
VERTEX
8
1
10
4.290482
20
21.534096
0
VERTEX
8
1
10
4.258919
20
21.331261
0
VERTEX
8
1
10
4.070244
20
21.205162
0
VERTEX
8
1
10
4.212074
20
21.147179
0
SEQEND
0
POLYLINE
8
1
66
1
70
1
0
VERTEX
8
1
10
4.841293
20
22.060310
0
VERTEX
8
1
10
4.641006
20
22.051773
0
VERTEX
8
1
10
4.535591
20
22.182365
0
VERTEX
8
1
10
4.503799
20
21.981216
0
VERTEX
8
1
10
4.316025
20
21.851990
0
VERTEX
8
1
10
4.456955
20
21.800079
0
VERTEX
8
1
10
4.444908
20
21.581612
0
VERTEX
8
1
10
4.599190
20
21.753830
0
VERTEX
8
1
10
4.793930
20
21.716431
0
VERTEX
8
1
10
4.707352
20
21.889198
0
SEQEND
0
POLYLINE
8
1
66
1
70
1
0
VERTEX
8
1
10
4.395287
20
22.303703
0
VERTEX
8
1
10
4.301613
20
22.479042
0
VERTEX
8
1
10
4.429619
20
22.654755
0
VERTEX
8
1
10
4.227364
20
22.646233
0
VERTEX
8
1
10
4.116951
20
22.778793
0
VERTEX
8
1
10
4.093597
20
22.574913
0
VERTEX
8
1
10
3.909996
20
22.442642
0
VERTEX
8
1
10
4.054214
20
22.389442
0
VERTEX
8
1
10
4.051178
20
22.165924
0
VERTEX
8
1
10
4.199402
20
22.341888
0
SEQEND
0
POLYLINE
8
1
66
1
70
1
0
VERTEX
8
1
10
4.086441
20
21.892319
0
VERTEX
8
1
10
3.884888
20
21.882454
0
VERTEX
8
1
10
3.779762
20
22.017151
0
VERTEX
8
1
10
3.747993
20
21.808426
0
VERTEX
8
1
10
3.558678
20
21.672371
0
VERTEX
8
1
10
3.701019
20
21.618599
0
VERTEX
8
1
10
3.688972
20
21.392181
0
VERTEX
8
1
10
3.842957
20
21.571159
0
VERTEX
8
1
10
4.038788
20
21.532906
0
VERTEX
8
1
10
3.951706
20
21.712959
0
SEQEND
0
POLYLINE
8
1
66
1
70
1
0
VERTEX
8
1
10
3.596016
20
22.091652
0
VERTEX
8
1
10
3.501701
20
22.274536
0
VERTEX
8
1
10
3.630379
20
22.459190
0
VERTEX
8
1
10
3.427002
20
22.448639
0
VERTEX
8
1
10
3.316833
20
22.585213
0
VERTEX
8
1
10
3.293510
20
22.373161
0
VERTEX
8
1
10
3.108398
20
22.233185
0
VERTEX
8
1
10
3.254013
20
22.178482
0
VERTEX
8
1
10
3.250992
20
21.946732
0
VERTEX
8
1
10
3.398804
20
22.130188
0
SEQEND
0
POLYLINE
8
1
66
1
70
1
0
VERTEX
8
1
10
3.149666
20
21.652008
0
VERTEX
8
1
10
3.044785
20
21.790413
0
VERTEX
8
1
10
3.013031
20
21.574181
0
VERTEX
8
1
10
2.822342
20
21.431000
0
VERTEX
8
1
10
2.965897
20
21.375801
0
VERTEX
8
1
10
2.953888
20
21.141769
0
VERTEX
8
1
10
3.107544
20
21.327652
0
VERTEX
8
1
10
3.304459
20
21.289055
0
VERTEX
8
1
10
3.216896
20
21.476044
0
VERTEX
8
1
10
3.352303
20
21.663704
0
SEQEND
0
POLYLINE
8
1
66
1
70
1
0
VERTEX
8
1
10
2.980721
20
20.950043
0
VERTEX
8
1
10
2.776192
20
20.944008
0
VERTEX
8
1
10
2.671822
20
21.088097
0
VERTEX
8
1
10
2.640274
20
20.868721
0
VERTEX
8
1
10
2.448578
20
20.727013
0
VERTEX
8
1
10
2.593117
20
20.665817
0
VERTEX
8
1
10
2.581123
20
20.425598
0
VERTEX
8
1
10
2.735260
20
20.611969
0
VERTEX
8
1
10
2.931694
20
20.566628
0
VERTEX
8
1
10
2.844292
20
20.760361
0
SEQEND
0
POLYLINE
8
1
66
1
70
1
0
VERTEX
8
1
10
3.498520
20
19.458382
0
VERTEX
8
1
10
3.646324
20
19.641823
0
VERTEX
8
1
10
3.843544
20
19.603287
0
VERTEX
8
1
10
3.749229
20
19.786171
0
VERTEX
8
1
10
3.877892
20
19.970825
0
VERTEX
8
1
10
3.674522
20
19.960274
0
VERTEX
8
1
10
3.564362
20
20.096863
0
VERTEX
8
1
10
3.541031
20
19.884789
0
VERTEX
8
1
10
3.355919
20
19.744827
0
VERTEX
8
1
10
3.501541
20
19.690117
0
SEQEND
0
POLYLINE
8
1
66
1
70
1
0
VERTEX
8
1
10
4.298706
20
19.677567
0
VERTEX
8
1
10
4.446915
20
19.853523
0
VERTEX
8
1
10
4.642807
20
19.815346
0
VERTEX
8
1
10
4.549133
20
19.990685
0
VERTEX
8
1
10
4.677139
20
20.166389
0
VERTEX
8
1
10
4.474869
20
20.157867
0
VERTEX
8
1
10
4.364464
20
20.290436
0
VERTEX
8
1
10
4.341118
20
20.086555
0
VERTEX
8
1
10
4.157524
20
19.954285
0
VERTEX
8
1
10
4.301743
20
19.901077
0
SEQEND
0
POLYLINE
8
1
66
1
70
1
0
VERTEX
8
1
10
5.615135
20
21.858101
0
VERTEX
8
1
10
5.529083
20
22.022820
0
VERTEX
8
1
10
5.662025
20
22.185242
0
VERTEX
8
1
10
5.463348
20
22.177650
0
VERTEX
8
1
10
5.357590
20
22.303589
0
VERTEX
8
1
10
5.325737
20
22.110542
0
VERTEX
8
1
10
5.139824
20
21.988213
0
VERTEX
8
1
10
5.279091
20
21.938728
0
VERTEX
8
1
10
5.267014
20
21.728928
0
VERTEX
8
1
10
5.421570
20
21.894073
0
SEQEND
0
POLYLINE
8
1
66
1
70
1
0
VERTEX
8
1
10
4.896446
20
23.683411
42
0.010993
0
VERTEX
8
1
10
4.428421
20
23.680504
42
0.026112
0
VERTEX
8
1
10
2.826614
20
23.349701
42
0.015859
0
VERTEX
8
1
10
2.498734
20
23.248558
0
VERTEX
8
1
10
2.459007
20
23.228775
42
0.066111
0
VERTEX
8
1
10
2.496811
20
23.011559
42
-0.040878
0
VERTEX
8
1
10
5.046722
20
23.641495
0
VERTEX
8
1
10
5.197235
20
23.663345
42
0.036357
0
SEQEND
0
POLYLINE
8
1
66
1
70
1
0
VERTEX
8
1
10
3.111404
20
23.623581
42
-0.030538
0
VERTEX
8
1
10
3.584282
20
23.714813
42
0.015945
0
VERTEX
8
1
10
2.421455
20
23.680504
0
VERTEX
8
1
10
2.440208
20
23.406013
42
-0.032648
0
SEQEND
0
POLYLINE
8
1
66
1
70
1
0
VERTEX
8
1
10
2.492149
20
22.055939
0
VERTEX
8
1
10
2.305679
20
21.907372
0
VERTEX
8
1
10
2.452553
20
21.851875
0
VERTEX
8
1
10
2.449539
20
21.612045
0
VERTEX
8
1
10
2.596886
20
21.803551
0
VERTEX
8
1
10
2.795502
20
21.765587
0
VERTEX
8
1
10
2.700516
20
21.955696
0
VERTEX
8
1
10
2.829720
20
22.149796
0
VERTEX
8
1
10
2.625473
20
22.136284
0
VERTEX
8
1
10
2.515480
20
22.276443
0
SEQEND
0
POLYLINE
8
1
66
1
70
1
0
VERTEX
8
1
10
3.109406
20
13.039818
0
VERTEX
8
1
10
3.016983
20
13.199623
0
VERTEX
8
1
10
3.143272
20
13.358345
0
VERTEX
8
1
10
2.943901
20
13.352005
0
VERTEX
8
1
10
2.832840
20
13.475670
0
VERTEX
8
1
10
2.809448
20
13.287544
0
VERTEX
8
1
10
2.629341
20
13.169075
0
VERTEX
8
1
10
2.770279
20
13.120277
0
VERTEX
8
1
10
2.767250
20
12.913513
0
VERTEX
8
1
10
2.916077
20
13.075584
0
SEQEND
0
POLYLINE
8
1
66
1
70
1
0
VERTEX
8
1
10
3.974922
20
13.521172
0
VERTEX
8
1
10
3.937698
20
13.585518
0
VERTEX
8
1
10
3.988556
20
13.649445
0
VERTEX
8
1
10
3.908272
20
13.646896
0
VERTEX
8
1
10
3.863541
20
13.696693
0
VERTEX
8
1
10
3.854118
20
13.620934
0
VERTEX
8
1
10
3.781586
20
13.573227
0
VERTEX
8
1
10
3.838341
20
13.553574
0
VERTEX
8
1
10
3.837120
20
13.470299
0
VERTEX
8
1
10
3.897057
20
13.535576
0
SEQEND
0
POLYLINE
8
1
66
1
70
1
0
VERTEX
8
1
10
3.187851
20
13.756516
0
VERTEX
8
1
10
5.226204
20
13.756516
0
VERTEX
8
1
10
5.226204
20
13.846504
0
VERTEX
8
1
10
3.187851
20
13.846504
0
SEQEND
0
POLYLINE
8
1
66
1
70
1
0
VERTEX
8
1
10
3.626228
20
13.302223
0
VERTEX
8
1
10
3.553085
20
13.428673
0
VERTEX
8
1
10
3.653023
20
13.554268
0
VERTEX
8
1
10
3.495255
20
13.549255
0
VERTEX
8
1
10
3.407372
20
13.647110
0
VERTEX
8
1
10
3.388870
20
13.498253
0
VERTEX
8
1
10
3.246353
20
13.404503
0
VERTEX
8
1
10
3.357872
20
13.365891
0
VERTEX
8
1
10
3.355476
20
13.202278
0
VERTEX
8
1
10
3.473244
20
13.330528
0
SEQEND
0
POLYLINE
8
1
66
1
70
1
0
VERTEX
8
1
10
5.797859
20
13.136429
0
VERTEX
8
1
10
5.797859
20
13.247543
0
VERTEX
8
1
10
3.658966
20
13.247543
0
VERTEX
8
1
10
3.658966
20
13.136429
0
SEQEND
0
POLYLINE
8
1
66
1
70
1
0
VERTEX
8
1
10
5.797859
20
13.330879
0
VERTEX
8
1
10
5.797859
20
13.441986
0
VERTEX
8
1
10
3.890450
20
13.441986
0
VERTEX
8
1
10
3.890450
20
13.330879
0
SEQEND
0
POLYLINE
8
1
66
1
70
1
0
VERTEX
8
1
10
5.797859
20
13.636429
0
VERTEX
8
1
10
4.128876
20
13.636429
0
VERTEX
8
1
10
4.128876
20
13.525322
0
VERTEX
8
1
10
5.797859
20
13.525322
0
SEQEND
0
POLYLINE
8
1
66
1
70
1
0
VERTEX
8
1
10
4.936157
20
17.978210
0
VERTEX
8
1
10
5.761429
20
17.978210
42
0.054020
0
VERTEX
8
1
10
5.786438
20
18.161201
42
0.073736
0
SEQEND
0
POLYLINE
8
1
66
1
70
1
0
VERTEX
8
1
10
5.841759
20
18.364944
42
0.094744
0
VERTEX
8
1
10
5.838593
20
18.516937
0
VERTEX
8
1
10
5.807549
20
18.525017
42
0.039390
0
VERTEX
8
1
10
4.551064
20
18.300049
42
0.017708
0
VERTEX
8
1
10
3.586136
20
18.023903
42
0.044263
0
VERTEX
8
1
10
4.251076
20
18.000412
42
-0.043831
0
VERTEX
8
1
10
5.008064
20
18.208252
42
-0.016712
0
VERTEX
8
1
10
5.836449
20
18.344208
42
0.033887
0
SEQEND
0
POLYLINE
8
1
66
1
70
1
0
VERTEX
8
1
10
5.873085
20
18.818649
42
0.093844
0
VERTEX
8
1
10
5.888000
20
19.065788
0
VERTEX
8
1
10
5.823441
20
19.065094
0
VERTEX
8
1
10
5.665962
20
19.035904
42
0.035615
0
VERTEX
8
1
10
2.985733
20
18.298546
42
0.007665
0
VERTEX
8
1
10
2.410393
20
18.023956
42
0.029554
0
VERTEX
8
1
10
2.987709
20
18.052040
42
0.023628
0
VERTEX
8
1
10
3.077736
20
18.067749
42
-0.037730
0
VERTEX
8
1
10
4.034996
20
18.399857
42
-0.028500
0
VERTEX
8
1
10
5.861465
20
18.778831
42
0.023978
0
SEQEND
0
POLYLINE
8
1
66
1
70
1
0
VERTEX
8
1
10
5.776619
20
19.534454
0
VERTEX
8
1
10
5.909546
20
19.696877
0
VERTEX
8
1
10
5.710869
20
19.689285
0
VERTEX
8
1
10
5.605110
20
19.815224
0
VERTEX
8
1
10
5.573242
20
19.622169
0
VERTEX
8
1
10
5.387344
20
19.499840
0
VERTEX
8
1
10
5.526604
20
19.450371
0
VERTEX
8
1
10
5.514542
20
19.240562
0
VERTEX
8
1
10
5.669083
20
19.405724
0
VERTEX
8
1
10
5.862656
20
19.369751
0
SEQEND
0
POLYLINE
8
1
66
1
70
1
0
VERTEX
8
1
10
5.991188
20
22.516014
0
VERTEX
8
1
10
5.898758
20
22.675819
0
VERTEX
8
1
10
6.025055
20
22.834541
0
VERTEX
8
1
10
5.825684
20
22.828201
0
VERTEX
8
1
10
5.714615
20
22.951866
0
VERTEX
8
1
10
5.691231
20
22.763748
0
VERTEX
8
1
10
5.511124
20
22.645271
0
VERTEX
8
1
10
5.652061
20
22.596474
0
VERTEX
8
1
10
5.649033
20
22.389717
0
VERTEX
8
1
10
5.797859
20
22.551781
0
SEQEND
0
POLYLINE
8
1
66
1
70
1
0
VERTEX
8
1
10
6.972054
20
14.748886
0
VERTEX
8
1
10
6.812248
20
14.656448
0
VERTEX
8
1
10
6.653526
20
14.782745
0
VERTEX
8
1
10
6.659866
20
14.583382
0
VERTEX
8
1
10
6.536201
20
14.472313
0
VERTEX
8
1
10
6.724319
20
14.448921
0
VERTEX
8
1
10
6.842789
20
14.268806
0
VERTEX
8
1
10
6.891594
20
14.409752
0
VERTEX
8
1
10
7.098351
20
14.406723
0
VERTEX
8
1
10
6.936287
20
14.555550
0
SEQEND
0
POLYLINE
8
1
66
1
70
1
0
VERTEX
8
1
10
6.764320
20
17.437325
0
VERTEX
8
1
10
6.764320
20
15.298439
0
VERTEX
8
1
10
6.875435
20
15.298439
0
VERTEX
8
1
10
6.875435
20
17.437325
0
SEQEND
0
POLYLINE
8
1
66
1
70
1
0
VERTEX
8
1
10
6.809586
20
14.994942
0
VERTEX
8
1
10
6.681343
20
15.112717
0
VERTEX
8
1
10
6.709641
20
15.265694
0
VERTEX
8
1
10
6.583199
20
15.192558
0
VERTEX
8
1
10
6.457596
20
15.292488
0
VERTEX
8
1
10
6.462608
20
15.134735
0
VERTEX
8
1
10
6.364761
20
15.046852
0
VERTEX
8
1
10
6.513618
20
15.028336
0
VERTEX
8
1
10
6.607361
20
14.885818
0
VERTEX
8
1
10
6.645973
20
14.997353
0
SEQEND
0
POLYLINE
8
1
66
1
70
1
0
VERTEX
8
1
10
6.569878
20
17.437325
0
VERTEX
8
1
10
6.569878
20
15.529922
0
VERTEX
8
1
10
6.680984
20
15.529922
0
VERTEX
8
1
10
6.680984
20
17.437325
0
SEQEND
0
POLYLINE
8
1
66
1
70
1
0
VERTEX
8
1
10
6.375435
20
17.437325
0
VERTEX
8
1
10
6.375435
20
15.768349
0
VERTEX
8
1
10
6.486542
20
15.768349
0
VERTEX
8
1
10
6.486542
20
17.437325
0
SEQEND
0
POLYLINE
8
1
66
1
70
1
0
VERTEX
8
1
10
6.362427
20
15.628029
0
VERTEX
8
1
10
6.364975
20
15.547737
0
VERTEX
8
1
10
6.315170
20
15.503006
0
VERTEX
8
1
10
6.390938
20
15.493591
0
VERTEX
8
1
10
6.438644
20
15.421059
0
VERTEX
8
1
10
6.458298
20
15.477814
0
VERTEX
8
1
10
6.541573
20
15.476593
0
VERTEX
8
1
10
6.476295
20
15.536530
0
VERTEX
8
1
10
6.490700
20
15.614388
0
VERTEX
8
1
10
6.426346
20
15.577164
0
SEQEND
0
POLYLINE
8
1
66
1
70
1
0
VERTEX
8
1
10
6.255356
20
16.865677
0
VERTEX
8
1
10
6.165359
20
16.865677
0
VERTEX
8
1
10
6.165359
20
14.827324
0
VERTEX
8
1
10
6.255356
20
14.827324
0
SEQEND
0
POLYLINE
8
1
66
1
70
1
0
VERTEX
8
1
10
9.583008
20
22.577766
0
VERTEX
8
1
10
9.606483
20
22.506477
0
VERTEX
8
1
10
9.547256
20
22.450417
0
VERTEX
8
1
10
9.638260
20
22.446465
0
VERTEX
8
1
10
9.685844
20
22.383537
0
VERTEX
8
1
10
9.718605
20
22.452385
0
VERTEX
8
1
10
9.807236
20
22.469559
0
VERTEX
8
1
10
9.736473
20
22.516060
0
VERTEX
8
1
10
9.743675
20
22.589600
0
VERTEX
8
1
10
9.667191
20
22.549507
0
SEQEND
0
POLYLINE
8
1
66
1
70
1
0
VERTEX
8
1
10
9.462959
20
21.981064
42
-0.090376
0
VERTEX
8
1
10
9.882256
20
21.928139
0
VERTEX
8
1
10
9.963928
20
21.905487
42
0.158605
0
VERTEX
8
1
10
9.997604
20
21.902962
0
VERTEX
8
1
10
9.997391
20
21.906044
42
0.112371
0
VERTEX
8
1
10
9.913429
20
21.961235
42
0.326750
0
VERTEX
8
1
10
8.882072
20
21.726318
42
0.069431
0
VERTEX
8
1
10
8.746872
20
21.537384
0
VERTEX
8
1
10
8.749626
20
21.539040
42
-0.075364
0
VERTEX
8
1
10
9.043274
20
21.831139
42
-0.133059
0
SEQEND
0
POLYLINE
8
1
66
1
70
1
0
VERTEX
8
1
10
9.686066
20
23.344261
0
VERTEX
8
1
10
9.709549
20
23.272964
0
VERTEX
8
1
10
9.650314
20
23.216911
0
VERTEX
8
1
10
9.741325
20
23.212959
0
VERTEX
8
1
10
9.788902
20
23.150032
0
VERTEX
8
1
10
9.821671
20
23.218880
0
VERTEX
8
1
10
9.910301
20
23.236053
0
VERTEX
8
1
10
9.839539
20
23.282547
0
VERTEX
8
1
10
9.846748
20
23.356087
0
VERTEX
8
1
10
9.770248
20
23.315994
0
SEQEND
0
POLYLINE
8
1
66
1
70
1
0
VERTEX
8
1
10
9.256340
20
22.580193
42
0.080103
0
VERTEX
8
1
10
9.224754
20
22.531448
42
0.077686
0
VERTEX
8
1
10
9.276077
20
22.572899
42
-0.099558
0
VERTEX
8
1
10
9.675423
20
22.833992
42
-0.062152
0
VERTEX
8
1
10
9.969360
20
22.888855
42
0.313477
0
VERTEX
8
1
10
9.995567
20
22.900932
0
VERTEX
8
1
10
9.993019
20
22.905853
0
VERTEX
8
1
10
9.986435
20
22.911194
42
0.170090
0
VERTEX
8
1
10
9.770790
20
22.919762
0
VERTEX
8
1
10
9.731880
20
22.909813
42
0.145591
0
VERTEX
8
1
10
9.264915
20
22.590614
0
SEQEND
0
POLYLINE
8
1
66
1
70
1
0
VERTEX
8
1
10
9.123024
20
23.426270
0
VERTEX
8
1
10
9.146507
20
23.354973
0
VERTEX
8
1
10
9.087273
20
23.298920
0
VERTEX
8
1
10
9.178284
20
23.294968
0
VERTEX
8
1
10
9.225861
20
23.232040
0
VERTEX
8
1
10
9.258621
20
23.300880
0
VERTEX
8
1
10
9.347260
20
23.318062
0
VERTEX
8
1
10
9.276497
20
23.364563
0
VERTEX
8
1
10
9.283699
20
23.438103
0
VERTEX
8
1
10
9.207207
20
23.398003
0
SEQEND
0
POLYLINE
8
1
66
1
70
1
0
VERTEX
8
1
10
8.453568
20
21.808968
42
-0.014944
0
VERTEX
8
1
10
8.224823
20
21.524742
42
0.131499
0
VERTEX
8
1
10
8.210213
20
21.493965
0
VERTEX
8
1
10
8.212608
20
21.489769
0
VERTEX
8
1
10
8.215492
20
21.488335
42
0.152281
0
VERTEX
8
1
10
8.301018
20
21.520348
42
0.106917
0
VERTEX
8
1
10
8.531425
20
21.748833
42
0.043940
0
VERTEX
8
1
10
8.765846
20
22.170868
0
VERTEX
8
1
10
8.855873
20
22.362732
42
-0.023985
0
VERTEX
8
1
10
9.074692
20
22.776161
42
1.270421
0
VERTEX
8
1
10
9.070335
20
22.778168
42
0.070527
0
VERTEX
8
1
10
8.980598
20
22.680702
42
0.039955
0
VERTEX
8
1
10
8.770691
20
22.349236
0
VERTEX
8
1
10
8.650215
20
22.129105
42
-0.030426
0
SEQEND
0
POLYLINE
8
1
66
1
70
1
0
VERTEX
8
1
10
8.395241
20
23.657249
42
0.582939
0
VERTEX
8
1
10
8.363228
20
23.656822
42
0.151176
0
VERTEX
8
1
10
8.377159
20
23.574532
42
-0.055325
0
VERTEX
8
1
10
8.514091
20
23.170738
42
1.200650
0
VERTEX
8
1
10
8.520477
20
23.174934
0
VERTEX
8
1
10
8.521614
20
23.179230
42
0.095207
0
VERTEX
8
1
10
8.508408
20
23.371162
42
0.055289
0
VERTEX
8
1
10
8.429024
20
23.613617
42
0.091325
0
SEQEND
0
POLYLINE
8
1
66
1
70
1
0
VERTEX
8
1
10
8.313011
20
23.123093
42
0.131478
0
VERTEX
8
1
10
8.221275
20
23.235481
0
VERTEX
8
1
10
8.215897
20
23.236122
0
VERTEX
8
1
10
8.212738
20
23.233414
42
0.151132
0
VERTEX
8
1
10
8.227524
20
23.177933
0
VERTEX
8
1
10
8.246490
20
23.130722
42
-0.155143
0
VERTEX
8
1
10
8.340881
20
22.159760
42
0.001592
0
VERTEX
8
1
10
8.312401
20
22.052513
0
VERTEX
8
1
10
8.312721
20
22.052109
42
0.208567
0
VERTEX
8
1
10
8.330139
20
22.077065
0
VERTEX
8
1
10
8.335411
20
22.087257
42
0.103804
0
VERTEX
8
1
10
8.425323
20
22.525078
42
0.106744
0
VERTEX
8
1
10
8.327934
20
23.092781
0
SEQEND
0
POLYLINE
8
1
66
1
70
1
0
VERTEX
8
1
10
8.019592
20
23.578415
0
VERTEX
8
1
10
8.043068
20
23.507118
0
VERTEX
8
1
10
7.983841
20
23.451065
0
VERTEX
8
1
10
8.074844
20
23.447113
0
VERTEX
8
1
10
8.122429
20
23.384186
0
VERTEX
8
1
10
8.155190
20
23.453026
0
VERTEX
8
1
10
8.243820
20
23.470215
0
VERTEX
8
1
10
8.173058
20
23.516701
0
VERTEX
8
1
10
8.180260
20
23.590240
0
VERTEX
8
1
10
8.103775
20
23.550148
0
SEQEND
0
POLYLINE
8
1
66
1
70
1
0
VERTEX
8
1
10
7.698570
20
20.198586
0
VERTEX
8
1
10
7.698067
20
20.242065
0
VERTEX
8
1
10
7.698235
20
20.280258
0
VERTEX
8
1
10
7.699684
20
20.318420
0
VERTEX
8
1
10
7.702408
20
20.356514
42
-0.204974
0
VERTEX
8
1
10
7.928482
20
20.815231
42
0.122186
0
VERTEX
8
1
10
7.972870
20
20.868004
0
VERTEX
8
1
10
7.971817
20
20.871147
0
VERTEX
8
1
10
7.968857
20
20.873367
42
0.179325
0
VERTEX
8
1
10
7.882446
20
20.844063
0
VERTEX
8
1
10
7.860893
20
20.829254
0
VERTEX
8
1
10
7.840561
20
20.812813
42
0.199777
0
VERTEX
8
1
10
7.663574
20
20.383018
42
0.081520
0
VERTEX
8
1
10
7.690796
20
20.161789
0
VERTEX
8
1
10
7.694267
20
20.154976
0
VERTEX
8
1
10
7.695297
20
20.154236
0
VERTEX
8
1
10
7.696205
20
20.154465
42
0.134433
0
SEQEND
0
POLYLINE
8
1
66
1
70
1
0
VERTEX
8
1
10
8.025009
20
20.979927
42
0.409089
0
VERTEX
8
1
10
8.046799
20
20.982063
42
0.114414
0
VERTEX
8
1
10
7.979378
20
21.042656
42
0.042475
0
VERTEX
8
1
10
7.555687
20
21.276634
42
0.024084
0
VERTEX
8
1
10
6.343048
20
21.777725
42
0.228235
0
VERTEX
8
1
10
6.329254
20
21.779205
42
0.033753
0
VERTEX
8
1
10
6.511261
20
21.692505
0
VERTEX
8
1
10
6.597504
20
21.653893
42
-0.019241
0
VERTEX
8
1
10
7.872665
20
21.046616
42
0.045569
0
SEQEND
0
POLYLINE
8
1
66
1
70
1
0
VERTEX
8
1
10
7.537369
20
21.039467
42
0.099568
0
VERTEX
8
1
10
6.771324
20
21.078484
42
0.112254
0
VERTEX
8
1
10
6.526886
20
20.989792
42
0.198485
0
VERTEX
8
1
10
6.495293
20
20.953644
0
VERTEX
8
1
10
6.495773
20
20.952110
42
0.217522
0
VERTEX
8
1
10
6.533104
20
20.960037
42
-0.109775
0
VERTEX
8
1
10
7.125076
20
21.068878
42
-0.040581
0
VERTEX
8
1
10
7.609215
20
21.015800
42
0.061231
0
SEQEND
0
POLYLINE
8
1
66
1
70
1
0
VERTEX
8
1
10
7.154175
20
21.308144
42
0.180966
0
VERTEX
8
1
10
6.382484
20
21.412071
42
0.157479
0
VERTEX
8
1
10
6.337524
20
21.391655
0
VERTEX
8
1
10
6.341972
20
21.390137
42
-0.012125
0
VERTEX
8
1
10
6.606056
20
21.415672
42
-0.127559
0
VERTEX
8
1
10
7.190819
20
21.284142
42
0.044156
0
SEQEND
0
POLYLINE
8
1
66
1
70
1
0
VERTEX
8
1
10
8.031960
20
21.053749
42
1.042443
0
VERTEX
8
1
10
8.036636
20
21.060219
42
0.085144
0
VERTEX
8
1
10
7.921188
20
21.187386
42
0.058973
0
VERTEX
8
1
10
7.466133
20
21.478355
42
0.002355
0
VERTEX
8
1
10
6.842453
20
21.778717
42
0.052474
0
VERTEX
8
1
10
6.933105
20
21.721199
42
0.000570
0
VERTEX
8
1
10
7.508217
20
21.415382
42
-0.045482
0
VERTEX
8
1
10
8.005150
20
21.070808
42
0.068336
0
SEQEND
0
POLYLINE
8
1
66
1
70
1
0
VERTEX
8
1
10
7.802200
20
22.563797
0
VERTEX
8
1
10
7.825684
20
22.492500
0
VERTEX
8
1
10
7.766449
20
22.436447
0
VERTEX
8
1
10
7.857460
20
22.432495
0
VERTEX
8
1
10
7.905045
20
22.369568
0
VERTEX
8
1
10
7.937813
20
22.438416
0
VERTEX
8
1
10
8.026436
20
22.455589
0
VERTEX
8
1
10
7.955673
20
22.502083
0
VERTEX
8
1
10
7.962875
20
22.575630
0
VERTEX
8
1
10
7.886383
20
22.535530
0
SEQEND
0
POLYLINE
8
1
66
1
70
1
0
VERTEX
8
1
10
6.969383
20
22.928452
0
VERTEX
8
1
10
6.885208
20
22.956711
0
VERTEX
8
1
10
6.908691
20
22.885422
0
VERTEX
8
1
10
6.849457
20
22.829361
0
VERTEX
8
1
10
6.940468
20
22.825409
0
VERTEX
8
1
10
6.988052
20
22.762482
0
VERTEX
8
1
10
7.020813
20
22.831329
0
VERTEX
8
1
10
7.109444
20
22.848511
0
VERTEX
8
1
10
7.038681
20
22.895004
0
VERTEX
8
1
10
7.045883
20
22.968544
0
SEQEND
0
POLYLINE
8
1
66
1
70
1
0
VERTEX
8
1
10
6.726135
20
23.231758
42
-0.038999
0
VERTEX
8
1
10
6.854340
20
23.108200
0
VERTEX
8
1
10
6.856895
20
23.107140
0
VERTEX
8
1
10
6.858231
20
23.108185
42
0.131556
0
VERTEX
8
1
10
6.804207
20
23.208046
42
0.112977
0
VERTEX
8
1
10
6.567879
20
23.398460
42
0.177092
0
VERTEX
8
1
10
6.503929
20
23.403694
42
0.509610
0
VERTEX
8
1
10
6.508720
20
23.374146
42
0.082416
0
VERTEX
8
1
10
6.615112
20
23.306503
42
-0.033036
0
SEQEND
0
POLYLINE
8
1
66
1
70
1
0
VERTEX
8
1
10
6.656845
20
22.764534
42
-0.033166
0
VERTEX
8
1
10
7.332954
20
22.129425
42
-0.063830
0
VERTEX
8
1
10
7.833656
20
21.416817
0
VERTEX
8
1
10
7.862106
20
21.367546
42
0.063463
0
VERTEX
8
1
10
7.957977
20
21.221779
0
VERTEX
8
1
10
7.964050
20
21.216667
42
0.797027
0
VERTEX
8
1
10
7.984306
20
21.227524
42
0.097765
0
VERTEX
8
1
10
7.969223
20
21.331276
42
0.031719
0
VERTEX
8
1
10
7.931198
20
21.441284
42
0.076864
0
VERTEX
8
1
10
7.745934
20
22.265717
42
0.058722
0
VERTEX
8
1
10
7.254257
20
23.212090
42
0.066232
0
VERTEX
8
1
10
7.059074
20
23.432213
42
0.180016
0
VERTEX
8
1
10
7.014664
20
23.452721
42
0.344530
0
VERTEX
8
1
10
7.012512
20
23.424957
0
VERTEX
8
1
10
7.016754
20
23.412369
0
VERTEX
8
1
10
7.024254
20
23.394547
42
0.033217
0
VERTEX
8
1
10
7.246361
20
23.020645
42
-0.058557
0
VERTEX
8
1
10
7.764923
20
21.984978
42
-0.030811
0
VERTEX
8
1
10
7.894569
20
21.523117
0
VERTEX
8
1
10
7.881783
20
21.548828
0
VERTEX
8
1
10
7.868469
20
21.574265
42
0.075096
0
VERTEX
8
1
10
7.298958
20
22.286018
42
0.043863
0
VERTEX
8
1
10
6.437141
20
22.967346
0
VERTEX
8
1
10
6.426849
20
22.972374
0
VERTEX
8
1
10
6.422249
20
22.973099
0
VERTEX
8
1
10
6.423447
20
22.969315
0
VERTEX
8
1
10
6.430367
20
22.961266
42
0.013469
0
SEQEND
0
POLYLINE
8
1
66
1
70
1
0
VERTEX
8
1
10
6.488945
20
22.150932
42
-0.116315
0
VERTEX
8
1
10
7.314842
20
21.777557
42
0.050501
0
VERTEX
8
1
10
7.450226
20
21.691071
42
0.674822
0
VERTEX
8
1
10
7.467072
20
21.695969
42
0.122710
0
VERTEX
8
1
10
7.394020
20
21.786400
0
VERTEX
8
1
10
7.364265
20
21.812706
42
0.139779
0
VERTEX
8
1
10
6.459473
20
22.178490
42
0.052276
0
VERTEX
8
1
10
6.314674
20
22.180496
0
VERTEX
8
1
10
6.311508
20
22.179260
42
0.246302
0
VERTEX
8
1
10
6.332275
20
22.174034
42
-0.011271
0
SEQEND
0
POLYLINE
8
1
66
1
70
1
0
VERTEX
8
1
10
6.443871
20
21.224991
42
-0.041193
0
VERTEX
8
1
10
7.229118
20
21.131981
42
0.073988
0
VERTEX
8
1
10
7.432602
20
21.115181
42
0.687163
0
VERTEX
8
1
10
7.441055
20
21.126656
0
VERTEX
8
1
10
7.433426
20
21.132538
42
0.079161
0
VERTEX
8
1
10
7.233261
20
21.193848
42
0.061635
0
VERTEX
8
1
10
6.453377
20
21.254547
42
0.056217
0
VERTEX
8
1
10
6.290421
20
21.233131
0
VERTEX
8
1
10
6.292503
20
21.231964
42
0.042699
0
SEQEND
0
POLYLINE
8
1
66
1
70
1
0
VERTEX
8
1
10
6.908173
20
20.845230
42
-0.062561
0
VERTEX
8
1
10
7.216370
20
20.895142
42
0.106565
0
VERTEX
8
1
10
7.296295
20
20.911339
42
0.594457
0
VERTEX
8
1
10
7.294731
20
20.934792
42
0.169778
0
VERTEX
8
1
10
7.152008
20
20.969505
42
0.080480
0
VERTEX
8
1
10
6.866806
20
20.902435
42
0.036727
0
VERTEX
8
1
10
6.425957
20
20.686264
0
VERTEX
8
1
10
6.423767
20
20.682564
0
VERTEX
8
1
10
6.427391
20
20.681213
42
0.059066
0
VERTEX
8
1
10
6.581291
20
20.728798
42
-0.021554
0
SEQEND
0
POLYLINE
8
1
66
1
70
1
0
VERTEX
8
1
10
6.517586
20
20.311729
42
-0.029947
0
VERTEX
8
1
10
7.266502
20
20.730598
42
-0.062096
0
VERTEX
8
1
10
7.885666
20
20.930138
0
VERTEX
8
1
10
7.894905
20
20.933662
42
0.854340
0
VERTEX
8
1
10
7.894409
20
20.949608
42
0.138115
0
VERTEX
8
1
10
7.763405
20
20.974709
42
0.090099
0
VERTEX
8
1
10
7.452667
20
20.904968
0
VERTEX
8
1
10
7.410515
20
20.888535
42
0.074654
0
VERTEX
8
1
10
6.450371
20
20.291084
42
0.175906
0
VERTEX
8
1
10
6.428108
20
20.263641
42
0.076365
0
VERTEX
8
1
10
6.472984
20
20.285301
0
SEQEND
0
POLYLINE
8
1
66
1
70
1
0
VERTEX
8
1
10
6.835846
20
19.229424
0
VERTEX
8
1
10
6.915405
20
19.246605
0
VERTEX
8
1
10
6.851883
20
19.293098
0
VERTEX
8
1
10
6.858353
20
19.366638
0
VERTEX
8
1
10
6.789688
20
19.326546
0
VERTEX
8
1
10
6.714134
20
19.354805
0
VERTEX
8
1
10
6.735214
20
19.283516
0
VERTEX
8
1
10
6.682045
20
19.227463
0
VERTEX
8
1
10
6.763733
20
19.223511
0
VERTEX
8
1
10
6.806442
20
19.160583
0
SEQEND
0
POLYLINE
8
1
66
1
70
1
0
VERTEX
8
1
10
6.816116
20
20.029572
0
VERTEX
8
1
10
6.825546
20
19.987846
0
VERTEX
8
1
10
6.801773
20
19.955040
0
VERTEX
8
1
10
6.838295
20
19.952721
0
VERTEX
8
1
10
6.857384
20
19.915901
0
VERTEX
8
1
10
6.870537
20
19.956184
0
VERTEX
8
1
10
6.906097
20
19.966248
0
VERTEX
8
1
10
6.877701
20
19.993454
0
VERTEX
8
1
10
6.880600
20
20.036499
0
VERTEX
8
1
10
6.849899
20
20.013031
0
SEQEND
0
POLYLINE
8
1
66
1
70
1
0
VERTEX
8
1
10
7.080162
20
20.530289
42
0.317576
0
VERTEX
8
1
10
7.089760
20
20.543892
42
0.107774
0
VERTEX
8
1
10
6.824081
20
20.321007
42
0.138338
0
VERTEX
8
1
10
6.596786
20
19.802307
42
0.105514
0
VERTEX
8
1
10
6.606636
20
19.698204
42
0.831948
0
VERTEX
8
1
10
6.626099
20
19.698509
42
0.054383
0
VERTEX
8
1
10
6.657509
20
19.799431
0
VERTEX
8
1
10
6.678978
20
19.892128
42
-0.172814
0
SEQEND
0
POLYLINE
8
1
66
1
70
1
0
VERTEX
8
1
10
7.137901
20
20.167778
42
-0.105225
0
VERTEX
8
1
10
7.561890
20
20.594635
0
VERTEX
8
1
10
7.638763
20
20.646324
42
0.147522
0
VERTEX
8
1
10
7.655434
20
20.661888
0
VERTEX
8
1
10
7.653793
20
20.661949
0
VERTEX
8
1
10
7.651146
20
20.661461
42
0.156660
0
VERTEX
8
1
10
7.054123
20
20.151787
42
0.129972
0
VERTEX
8
1
10
7.016571
20
20.032059
0
VERTEX
8
1
10
7.017418
20
20.025002
42
0.830819
0
VERTEX
8
1
10
7.038353
20
20.020699
42
0.051290
0
VERTEX
8
1
10
7.096825
20
20.101936
0
SEQEND
0
POLYLINE
8
1
66
1
70
1
0
VERTEX
8
1
10
8.020424
20
20.381584
42
0.086520
0
VERTEX
8
1
10
8.081772
20
20.682327
42
0.210216
0
VERTEX
8
1
10
8.065536
20
20.731094
0
VERTEX
8
1
10
8.059151
20
20.732201
42
0.193193
0
VERTEX
8
1
10
8.006218
20
20.674004
42
0.047854
0
VERTEX
8
1
10
7.854370
20
20.307755
42
-0.042463
0
VERTEX
8
1
10
7.389107
20
19.252510
42
-0.013399
0
VERTEX
8
1
10
7.226013
20
18.990097
0
VERTEX
8
1
10
7.223946
20
18.985382
42
1.264136
0
VERTEX
8
1
10
7.230156
20
18.981445
42
0.077150
0
VERTEX
8
1
10
7.370888
20
19.126579
42
0.047037
0
VERTEX
8
1
10
7.685883
20
19.626854
42
0.033347
0
SEQEND
0
POLYLINE
8
1
66
1
70
1
0
VERTEX
8
1
10
8.105507
20
21.258057
0
VERTEX
8
1
10
8.188667
20
21.294930
0
VERTEX
8
1
10
8.237816
20
21.319962
42
0.076625
0
VERTEX
8
1
10
8.748619
20
21.728676
42
0.039183
0
VERTEX
8
1
10
9.330780
20
22.447090
0
VERTEX
8
1
10
9.338142
20
22.461266
0
VERTEX
8
1
10
9.339325
20
22.468452
0
VERTEX
8
1
10
9.334068
20
22.468224
0
VERTEX
8
1
10
9.322647
20
22.460640
42
0.035950
0
VERTEX
8
1
10
9.074081
20
22.192993
0
VERTEX
8
1
10
8.864098
20
21.946678
42
-0.047830
0
VERTEX
8
1
10
8.406677
20
21.494041
42
-0.053330
0
VERTEX
8
1
10
8.149208
20
21.331291
42
-0.062349
0
VERTEX
8
1
10
8.144325
20
21.737801
42
0.007947
0
VERTEX
8
1
10
8.194443
20
22.266342
42
0.075804
0
VERTEX
8
1
10
8.164970
20
22.745041
42
0.118549
0
VERTEX
8
1
10
8.044449
20
23.003471
0
VERTEX
8
1
10
8.044334
20
23.003197
42
-0.125438
0
VERTEX
8
1
10
8.165909
20
22.554039
42
-0.042464
0
VERTEX
8
1
10
8.134300
20
22.054573
0
VERTEX
8
1
10
8.116852
20
21.916504
42
0.050452
0
VERTEX
8
1
10
8.086800
20
21.392258
42
0.029662
0
SEQEND
0
POLYLINE
8
1
66
1
70
1
0
VERTEX
8
1
10
8.389931
20
19.585861
0
VERTEX
8
1
10
8.403854
20
19.621918
42
0.134420
0
VERTEX
8
1
10
8.418213
20
20.105583
42
0.092006
0
VERTEX
8
1
10
8.327492
20
20.357964
42
0.153558
0
VERTEX
8
1
10
8.262543
20
20.420151
42
0.494465
0
VERTEX
8
1
10
8.248421
20
20.404625
0
VERTEX
8
1
10
8.247360
20
20.394165
42
0.079984
0
VERTEX
8
1
10
8.282417
20
20.235901
42
-0.106968
0
VERTEX
8
1
10
8.364769
20
19.707138
42
-0.058961
0
VERTEX
8
1
10
8.299965
20
19.459854
42
1.186962
0
VERTEX
8
1
10
8.305634
20
19.457039
42
0.117234
0
SEQEND
0
POLYLINE
8
1
66
1
70
1
0
VERTEX
8
1
10
8.781525
20
19.995331
0
VERTEX
8
1
10
8.776878
20
20.015503
42
0.136813
0
VERTEX
8
1
10
8.419502
20
20.573608
42
0.106466
0
VERTEX
8
1
10
8.230682
20
20.685585
42
1.046159
0
VERTEX
8
1
10
8.224846
20
20.681664
0
VERTEX
8
1
10
8.228920
20
20.676834
42
-0.136925
0
VERTEX
8
1
10
8.609390
20
20.175476
42
-0.011900
0
VERTEX
8
1
10
8.691582
20
19.952957
42
0.118664
0
VERTEX
8
1
10
8.749107
20
19.858063
42
0.582929
0
VERTEX
8
1
10
8.780876
20
19.871887
42
0.143079
0
SEQEND
0
POLYLINE
8
1
66
1
70
1
0
VERTEX
8
1
10
9.027550
20
19.360268
0
VERTEX
8
1
10
9.116180
20
19.377449
0
VERTEX
8
1
10
9.045418
20
19.423943
0
VERTEX
8
1
10
9.052628
20
19.497490
0
VERTEX
8
1
10
8.976128
20
19.457390
0
VERTEX
8
1
10
8.891945
20
19.485657
0
VERTEX
8
1
10
8.915428
20
19.414360
0
VERTEX
8
1
10
8.856194
20
19.358307
0
VERTEX
8
1
10
8.947205
20
19.354355
0
VERTEX
8
1
10
8.994781
20
19.291428
0
SEQEND
0
POLYLINE
8
1
66
1
70
1
0
VERTEX
8
1
10
9.216957
20
19.857437
42
0.083783
0
VERTEX
8
1
10
9.231979
20
19.839569
0
VERTEX
8
1
10
9.232376
20
19.842392
42
0.051557
0
VERTEX
8
1
10
9.138992
20
20.029663
42
0.085731
0
VERTEX
8
1
10
8.611908
20
20.670769
42
0.104179
0
VERTEX
8
1
10
8.261353
20
20.868088
42
0.116628
0
VERTEX
8
1
10
8.161331
20
20.880524
42
0.958358
0
VERTEX
8
1
10
8.163399
20
20.868286
42
0.006811
0
VERTEX
8
1
10
8.362556
20
20.764435
42
-0.087536
0
VERTEX
8
1
10
8.853439
20
20.352432
42
-0.037800
0
SEQEND
0
POLYLINE
8
1
66
1
70
1
0
VERTEX
8
1
10
9.684486
20
19.277588
0
VERTEX
8
1
10
9.692024
20
19.265388
42
0.680399
0
VERTEX
8
1
10
9.726608
20
19.259880
42
0.169891
0
VERTEX
8
1
10
9.722046
20
19.362038
42
0.133401
0
VERTEX
8
1
10
9.513756
20
19.703407
42
0.204583
0
VERTEX
8
1
10
9.485367
20
19.719734
42
0.179718
0
VERTEX
8
1
10
9.491386
20
19.706604
42
-0.098493
0
VERTEX
8
1
10
9.668121
20
19.315628
42
0.035108
0
SEQEND
0
POLYLINE
8
1
66
1
70
1
0
VERTEX
8
1
10
9.745972
20
19.663475
42
0.229369
0
VERTEX
8
1
10
9.770668
20
19.641434
0
VERTEX
8
1
10
9.774643
20
19.644142
0
VERTEX
8
1
10
9.777367
20
19.650322
0
VERTEX
8
1
10
9.778732
20
19.659691
42
0.135641
0
VERTEX
8
1
10
9.697853
20
19.871834
42
0.117057
0
VERTEX
8
1
10
9.095398
20
20.439018
42
1.433208
0
VERTEX
8
1
10
9.092484
20
20.437088
42
0.048448
0
VERTEX
8
1
10
9.113396
20
20.417221
0
VERTEX
8
1
10
9.184059
20
20.358253
0
VERTEX
8
1
10
9.230820
20
20.318268
42
-0.100669
0
VERTEX
8
1
10
9.717148
20
19.710060
42
0.012290
0
SEQEND
0
POLYLINE
8
1
66
1
70
1
0
VERTEX
8
1
10
9.811226
20
20.160332
42
0.352696
0
VERTEX
8
1
10
9.835793
20
20.157539
0
VERTEX
8
1
10
9.835754
20
20.161980
42
0.118678
0
VERTEX
8
1
10
9.772774
20
20.241295
42
0.072762
0
VERTEX
8
1
10
9.449196
20
20.435341
42
0.073112
0
VERTEX
8
1
10
8.653419
20
20.661194
42
2.023648
0
VERTEX
8
1
10
8.653854
20
20.657707
42
0.030362
0
VERTEX
8
1
10
8.693825
20
20.644943
0
VERTEX
8
1
10
8.812767
20
20.612083
42
-0.063296
0
VERTEX
8
1
10
9.564461
20
20.312950
42
0.009317
0
VERTEX
8
1
10
9.799782
20
20.166664
0
SEQEND
0
POLYLINE
8
1
66
1
70
1
0
VERTEX
8
1
10
9.983727
20
20.268959
0
VERTEX
8
1
10
9.975731
20
20.277634
42
0.064795
0
VERTEX
8
1
10
9.614777
20
20.524673
42
0.066001
0
VERTEX
8
1
10
8.463661
20
20.949776
42
0.069399
0
VERTEX
8
1
10
8.228470
20
20.972313
42
0.313565
0
VERTEX
8
1
10
8.212585
20
20.962387
0
VERTEX
8
1
10
8.215675
20
20.957481
0
VERTEX
8
1
10
8.222763
20
20.951981
42
0.049736
0
VERTEX
8
1
10
8.448837
20
20.875526
0
VERTEX
8
1
10
8.507614
20
20.859238
0
VERTEX
8
1
10
8.566505
20
20.843376
42
-0.056728
0
VERTEX
8
1
10
9.688416
20
20.430420
42
-0.013414
0
VERTEX
8
1
10
9.980377
20
20.261948
0
VERTEX
8
1
10
9.985191
20
20.259941
0
VERTEX
8
1
10
9.988480
20
20.259628
42
0.241966
0
SEQEND
0
POLYLINE
8
1
66
1
70
1
0
VERTEX
8
1
10
9.755814
20
20.863640
0
VERTEX
8
1
10
9.774185
20
20.805016
0
VERTEX
8
1
10
9.727852
20
20.758926
0
VERTEX
8
1
10
9.799042
20
20.755676
0
VERTEX
8
1
10
9.836266
20
20.703934
0
VERTEX
8
1
10
9.861893
20
20.760544
0
VERTEX
8
1
10
9.931229
20
20.774666
0
VERTEX
8
1
10
9.875870
20
20.812897
0
VERTEX
8
1
10
9.881508
20
20.873367
0
VERTEX
8
1
10
9.821671
20
20.840401
0
SEQEND
0
POLYLINE
8
1
66
1
70
1
0
VERTEX
8
1
10
9.989349
20
20.962959
42
0.074078
0
VERTEX
8
1
10
10.009697
20
20.964439
42
0.055884
0
VERTEX
8
1
10
9.909180
20
20.982956
0
VERTEX
8
1
10
9.610947
20
21.027824
42
0.034221
0
VERTEX
8
1
10
8.821732
20
21.107277
0
VERTEX
8
1
10
8.747398
20
21.107254
0
VERTEX
8
1
10
8.673096
20
21.105232
42
0.087737
0
VERTEX
8
1
10
8.282700
20
21.035706
42
0.209431
0
VERTEX
8
1
10
8.258400
20
21.017952
42
0.238865
0
VERTEX
8
1
10
8.288681
20
21.013504
42
0.010018
0
VERTEX
8
1
10
8.576202
20
21.042038
42
-0.047358
0
VERTEX
8
1
10
9.372673
20
21.021309
42
0.014827
0
VERTEX
8
1
10
9.967209
20
20.963676
0
SEQEND
0
POLYLINE
8
1
66
1
70
1
0
VERTEX
8
1
10
9.181664
20
21.309174
42
-0.180872
0
VERTEX
8
1
10
9.890259
20
21.184753
42
0.040635
0
VERTEX
8
1
10
9.983940
20
21.137009
42
1.113819
0
VERTEX
8
1
10
9.986351
20
21.145218
0
VERTEX
8
1
10
9.982269
20
21.150566
42
0.104305
0
VERTEX
8
1
10
9.795303
20
21.266281
42
0.201891
0
VERTEX
8
1
10
9.037155
20
21.275612
0
VERTEX
8
1
10
9.040329
20
21.275681
42
-0.017489
0
SEQEND
0
POLYLINE
8
1
66
1
70
1
0
VERTEX
8
1
10
10.020561
20
21.644043
42
0.097766
0
VERTEX
8
1
10
10.040291
20
21.654198
0
VERTEX
8
1
10
10.039047
20
21.656059
42
0.045871
0
VERTEX
8
1
10
9.836273
20
21.635818
42
0.034589
0
VERTEX
8
1
10
8.787331
20
21.415565
42
0.051515
0
VERTEX
8
1
10
8.297569
20
21.227142
42
0.087554
0
VERTEX
8
1
10
8.147217
20
21.116325
0
VERTEX
8
1
10
8.142639
20
21.110046
0
VERTEX
8
1
10
8.138451
20
21.103508
42
0.779269
0
VERTEX
8
1
10
8.155846
20
21.079704
42
0.085693
0
VERTEX
8
1
10
8.261848
20
21.104973
42
0.014187
0
VERTEX
8
1
10
8.617409
20
21.242668
42
-0.031870
0
VERTEX
8
1
10
9.536247
20
21.518539
42
0.015611
0
SEQEND
0
POLYLINE
8
1
66
1
70
1
0
VERTEX
8
1
10
11.172897
20
22.740532
42
-0.045986
0
VERTEX
8
1
10
13.759903
20
23.285927
42
0.137490
0
VERTEX
8
1
10
13.722427
20
23.560333
0
VERTEX
8
1
10
13.720901
20
23.560249
42
0.038094
0
VERTEX
8
1
10
11.333534
20
23.081871
42
0.025938
0
VERTEX
8
1
10
10.477722
20
22.788422
42
0.204887
0
VERTEX
8
1
10
10.456940
20
22.712761
42
0.071315
0
VERTEX
8
1
10
10.496422
20
22.514114
42
-0.014637
0
SEQEND
0
POLYLINE
8
1
66
1
70
1
0
VERTEX
8
1
10
13.746658
20
20.567345
0
VERTEX
8
1
10
13.667976
20
20.735191
0
VERTEX
8
1
10
13.807564
20
20.893974
0
VERTEX
8
1
10
13.609261
20
20.891998
0
VERTEX
8
1
10
13.509216
20
21.021049
0
VERTEX
8
1
10
13.469086
20
20.828690
0
VERTEX
8
1
10
13.278328
20
20.711617
0
VERTEX
8
1
10
13.415154
20
20.657845
0
VERTEX
8
1
10
13.394150
20
20.448250
0
VERTEX
8
1
10
13.554970
20
20.609039
0
SEQEND
0
POLYLINE
8
1
66
1
70
1
0
VERTEX
8
1
10
13.441460
20
19.973206
0
VERTEX
8
1
10
13.348412
20
20.140945
0
VERTEX
8
1
10
13.475647
20
20.307877
0
VERTEX
8
1
10
13.274689
20
20.300972
0
VERTEX
8
1
10
13.163986
20
20.429306
0
VERTEX
8
1
10
13.140640
20
20.233444
0
VERTEX
8
1
10
12.958694
20
20.108528
0
VERTEX
8
1
10
13.101349
20
20.057159
0
VERTEX
8
1
10
13.098312
20
19.841957
0
VERTEX
8
1
10
13.246880
20
20.010658
0
SEQEND
0
POLYLINE
8
1
66
1
70
1
0
VERTEX
8
1
10
13.041458
20
19.228081
0
VERTEX
8
1
10
12.954872
20
19.400833
0
VERTEX
8
1
10
13.088814
20
19.571953
0
VERTEX
8
1
10
12.888527
20
19.563423
0
VERTEX
8
1
10
12.783104
20
19.694008
0
VERTEX
8
1
10
12.751320
20
19.492867
0
VERTEX
8
1
10
12.563553
20
19.363625
0
VERTEX
8
1
10
12.704483
20
19.311722
0
VERTEX
8
1
10
12.692429
20
19.093262
0
VERTEX
8
1
10
12.846703
20
19.265465
0
SEQEND
0
POLYLINE
8
1
66
1
70
1
0
VERTEX
8
1
10
12.286316
20
19.044540
0
VERTEX
8
1
10
12.199234
20
19.224602
0
VERTEX
8
1
10
12.333961
20
19.403946
0
VERTEX
8
1
10
12.132401
20
19.394096
0
VERTEX
8
1
10
12.027283
20
19.528778
0
VERTEX
8
1
10
11.995499
20
19.320076
0
VERTEX
8
1
10
11.806198
20
19.184006
0
VERTEX
8
1
10
11.948532
20
19.130234
0
VERTEX
8
1
10
11.936485
20
18.903824
0
VERTEX
8
1
10
12.090477
20
19.082794
0
SEQEND
0
POLYLINE
8
1
66
1
70
1
0
VERTEX
8
1
10
11.551979
20
18.800697
0
VERTEX
8
1
10
11.464424
20
18.987686
0
VERTEX
8
1
10
11.599815
20
19.175354
0
VERTEX
8
1
10
11.397186
20
19.163658
0
VERTEX
8
1
10
11.292305
20
19.302071
0
VERTEX
8
1
10
11.260536
20
19.085823
0
VERTEX
8
1
10
11.069862
20
18.942642
0
VERTEX
8
1
10
11.213425
20
18.887428
0
VERTEX
8
1
10
11.201416
20
18.653412
0
VERTEX
8
1
10
11.355064
20
18.839302
0
SEQEND
0
POLYLINE
8
1
66
1
70
1
0
VERTEX
8
1
10
11.043022
20
19.277229
0
VERTEX
8
1
10
10.948036
20
19.467316
0
VERTEX
8
1
10
11.077232
20
19.661446
0
VERTEX
8
1
10
10.873001
20
19.647911
0
VERTEX
8
1
10
10.763000
20
19.788078
0
VERTEX
8
1
10
10.739670
20
19.567574
0
VERTEX
8
1
10
10.553185
20
19.419014
0
VERTEX
8
1
10
10.700066
20
19.363503
0
VERTEX
8
1
10
10.697044
20
19.123672
0
VERTEX
8
1
10
10.844398
20
19.315193
0
SEQEND
0
POLYLINE
8
1
66
1
70
1
0
VERTEX
8
1
10
13.193932
20
22.461563
0
VERTEX
8
1
10
13.100891
20
22.629288
0
VERTEX
8
1
10
13.228134
20
22.796242
0
VERTEX
8
1
10
13.027168
20
22.789322
0
VERTEX
8
1
10
12.916466
20
22.917671
0
VERTEX
8
1
10
12.893135
20
22.721809
0
VERTEX
8
1
10
12.711166
20
22.596901
0
VERTEX
8
1
10
12.853836
20
22.545525
0
VERTEX
8
1
10
12.850792
20
22.330315
0
VERTEX
8
1
10
12.999352
20
22.499016
0
SEQEND
0
POLYLINE
8
1
66
1
70
1
0
VERTEX
8
1
10
13.352676
20
21.183792
0
VERTEX
8
1
10
13.266899
20
21.354347
0
VERTEX
8
1
10
13.401001
20
21.517174
0
VERTEX
8
1
10
13.200203
20
21.516182
0
VERTEX
8
1
10
13.094986
20
21.647652
0
VERTEX
8
1
10
13.063370
20
21.452759
0
VERTEX
8
1
10
12.876457
20
21.333588
0
VERTEX
8
1
10
13.016716
20
21.277893
0
VERTEX
8
1
10
13.004654
20
21.063019
0
VERTEX
8
1
10
13.159851
20
21.227043
0
SEQEND
0
POLYLINE
8
1
66
1
70
1
0
VERTEX
8
1
10
12.922089
20
20.449661
0
VERTEX
8
1
10
12.842972
20
20.625725
0
VERTEX
8
1
10
12.983681
20
20.792984
0
VERTEX
8
1
10
12.783615
20
20.790596
0
VERTEX
8
1
10
12.683975
20
20.924545
0
VERTEX
8
1
10
12.643921
20
20.724266
0
VERTEX
8
1
10
12.451248
20
20.600693
0
VERTEX
8
1
10
12.589745
20
20.544090
0
VERTEX
8
1
10
12.568741
20
20.325661
0
VERTEX
8
1
10
12.729378
20
20.493263
0
SEQEND
0
POLYLINE
8
1
66
1
70
1
0
VERTEX
8
1
10
12.161972
20
20.289825
0
VERTEX
8
1
10
12.082436
20
20.473351
0
VERTEX
8
1
10
12.224075
20
20.648697
0
VERTEX
8
1
10
12.022583
20
20.645477
0
VERTEX
8
1
10
11.923248
20
20.783730
0
VERTEX
8
1
10
11.883278
20
20.575989
0
VERTEX
8
1
10
11.688980
20
20.446007
0
VERTEX
8
1
10
11.828857
20
20.387123
0
VERTEX
8
1
10
11.807884
20
20.160553
0
VERTEX
8
1
10
11.968315
20
20.334763
0
SEQEND
0
POLYLINE
8
1
66
1
70
1
0
VERTEX
8
1
10
11.420609
20
20.070358
0
VERTEX
8
1
10
11.340698
20
20.261055
0
VERTEX
8
1
10
11.483109
20
20.444611
0
VERTEX
8
1
10
11.280434
20
20.440025
0
VERTEX
8
1
10
11.181351
20
20.582253
0
VERTEX
8
1
10
11.141434
20
20.367020
0
VERTEX
8
1
10
10.945686
20
20.230309
0
VERTEX
8
1
10
11.086807
20
20.169579
0
VERTEX
8
1
10
11.065865
20
19.935188
0
VERTEX
8
1
10
11.226006
20
20.116135
0
SEQEND
0
POLYLINE
8
1
66
1
70
1
0
VERTEX
8
1
10
11.393105
20
20.731606
0
VERTEX
8
1
10
11.547676
20
20.910049
0
VERTEX
8
1
10
11.742859
20
20.864685
0
VERTEX
8
1
10
11.656021
20
21.050850
0
VERTEX
8
1
10
11.791786
20
21.231133
0
VERTEX
8
1
10
11.588272
20
21.227547
0
VERTEX
8
1
10
11.483681
20
21.367744
0
VERTEX
8
1
10
11.452133
20
21.156815
0
VERTEX
8
1
10
11.261887
20
21.023376
0
VERTEX
8
1
10
11.405128
20
20.963448
0
SEQEND
0
POLYLINE
8
1
66
1
70
1
0
VERTEX
8
1
10
12.200027
20
20.923820
0
VERTEX
8
1
10
12.354935
20
21.094925
0
VERTEX
8
1
10
12.548935
20
21.050423
0
VERTEX
8
1
10
12.462616
20
21.228828
0
VERTEX
8
1
10
12.597626
20
21.400230
0
VERTEX
8
1
10
12.395378
20
21.398170
0
VERTEX
8
1
10
12.290482
20
21.534096
0
VERTEX
8
1
10
12.258919
20
21.331261
0
VERTEX
8
1
10
12.070244
20
21.205162
0
VERTEX
8
1
10
12.212074
20
21.147179
0
SEQEND
0
POLYLINE
8
1
66
1
70
1
0
VERTEX
8
1
10
12.841293
20
22.060310
0
VERTEX
8
1
10
12.641006
20
22.051773
0
VERTEX
8
1
10
12.535591
20
22.182365
0
VERTEX
8
1
10
12.503799
20
21.981216
0
VERTEX
8
1
10
12.316025
20
21.851990
0
VERTEX
8
1
10
12.456955
20
21.800079
0
VERTEX
8
1
10
12.444908
20
21.581612
0
VERTEX
8
1
10
12.599190
20
21.753830
0
VERTEX
8
1
10
12.793930
20
21.716431
0
VERTEX
8
1
10
12.707352
20
21.889198
0
SEQEND
0
POLYLINE
8
1
66
1
70
1
0
VERTEX
8
1
10
12.395287
20
22.303703
0
VERTEX
8
1
10
12.301613
20
22.479042
0
VERTEX
8
1
10
12.429619
20
22.654755
0
VERTEX
8
1
10
12.227364
20
22.646233
0
VERTEX
8
1
10
12.116951
20
22.778793
0
VERTEX
8
1
10
12.093597
20
22.574913
0
VERTEX
8
1
10
11.909996
20
22.442642
0
VERTEX
8
1
10
12.054214
20
22.389442
0
VERTEX
8
1
10
12.051178
20
22.165924
0
VERTEX
8
1
10
12.199402
20
22.341888
0
SEQEND
0
POLYLINE
8
1
66
1
70
1
0
VERTEX
8
1
10
12.086441
20
21.892319
0
VERTEX
8
1
10
11.884888
20
21.882454
0
VERTEX
8
1
10
11.779762
20
22.017151
0
VERTEX
8
1
10
11.747993
20
21.808426
0
VERTEX
8
1
10
11.558678
20
21.672371
0
VERTEX
8
1
10
11.701019
20
21.618599
0
VERTEX
8
1
10
11.688972
20
21.392181
0
VERTEX
8
1
10
11.842957
20
21.571159
0
VERTEX
8
1
10
12.038788
20
21.532906
0
VERTEX
8
1
10
11.951706
20
21.712959
0
SEQEND
0
POLYLINE
8
1
66
1
70
1
0
VERTEX
8
1
10
11.596016
20
22.091652
0
VERTEX
8
1
10
11.501701
20
22.274536
0
VERTEX
8
1
10
11.630379
20
22.459190
0
VERTEX
8
1
10
11.427002
20
22.448639
0
VERTEX
8
1
10
11.316833
20
22.585213
0
VERTEX
8
1
10
11.293510
20
22.373161
0
VERTEX
8
1
10
11.108398
20
22.233185
0
VERTEX
8
1
10
11.254013
20
22.178482
0
VERTEX
8
1
10
11.250992
20
21.946732
0
VERTEX
8
1
10
11.398804
20
22.130188
0
SEQEND
0
POLYLINE
8
1
66
1
70
1
0
VERTEX
8
1
10
11.149666
20
21.652008
0
VERTEX
8
1
10
11.044785
20
21.790413
0
VERTEX
8
1
10
11.013031
20
21.574181
0
VERTEX
8
1
10
10.822342
20
21.431000
0
VERTEX
8
1
10
10.965897
20
21.375801
0
VERTEX
8
1
10
10.953888
20
21.141769
0
VERTEX
8
1
10
11.107544
20
21.327652
0
VERTEX
8
1
10
11.304459
20
21.289055
0
VERTEX
8
1
10
11.216896
20
21.476044
0
VERTEX
8
1
10
11.352303
20
21.663704
0
SEQEND
0
POLYLINE
8
1
66
1
70
1
0
VERTEX
8
1
10
10.980721
20
20.950043
0
VERTEX
8
1
10
10.776192
20
20.944008
0
VERTEX
8
1
10
10.671822
20
21.088097
0
VERTEX
8
1
10
10.640274
20
20.868721
0
VERTEX
8
1
10
10.448578
20
20.727013
0
VERTEX
8
1
10
10.593117
20
20.665817
0
VERTEX
8
1
10
10.581123
20
20.425598
0
VERTEX
8
1
10
10.735260
20
20.611969
0
VERTEX
8
1
10
10.931694
20
20.566628
0
VERTEX
8
1
10
10.844292
20
20.760361
0
SEQEND
0
POLYLINE
8
1
66
1
70
1
0
VERTEX
8
1
10
11.498520
20
19.458382
0
VERTEX
8
1
10
11.646324
20
19.641823
0
VERTEX
8
1
10
11.843544
20
19.603287
0
VERTEX
8
1
10
11.749229
20
19.786171
0
VERTEX
8
1
10
11.877892
20
19.970825
0
VERTEX
8
1
10
11.674522
20
19.960274
0
VERTEX
8
1
10
11.564362
20
20.096863
0
VERTEX
8
1
10
11.541031
20
19.884789
0
VERTEX
8
1
10
11.355919
20
19.744827
0
VERTEX
8
1
10
11.501541
20
19.690117
0
SEQEND
0
POLYLINE
8
1
66
1
70
1
0
VERTEX
8
1
10
12.298706
20
19.677567
0
VERTEX
8
1
10
12.446915
20
19.853523
0
VERTEX
8
1
10
12.642807
20
19.815346
0
VERTEX
8
1
10
12.549133
20
19.990685
0
VERTEX
8
1
10
12.677139
20
20.166389
0
VERTEX
8
1
10
12.474869
20
20.157867
0
VERTEX
8
1
10
12.364464
20
20.290436
0
VERTEX
8
1
10
12.341118
20
20.086555
0
VERTEX
8
1
10
12.157524
20
19.954285
0
VERTEX
8
1
10
12.301743
20
19.901077
0
SEQEND
0
POLYLINE
8
1
66
1
70
1
0
VERTEX
8
1
10
13.615135
20
21.858101
0
VERTEX
8
1
10
13.529083
20
22.022820
0
VERTEX
8
1
10
13.662025
20
22.185242
0
VERTEX
8
1
10
13.463348
20
22.177650
0
VERTEX
8
1
10
13.357590
20
22.303589
0
VERTEX
8
1
10
13.325737
20
22.110542
0
VERTEX
8
1
10
13.139824
20
21.988213
0
VERTEX
8
1
10
13.279091
20
21.938728
0
VERTEX
8
1
10
13.267014
20
21.728928
0
VERTEX
8
1
10
13.421570
20
21.894073
0
SEQEND
0
POLYLINE
8
1
66
1
70
1
0
VERTEX
8
1
10
12.896446
20
23.683411
42
0.010993
0
VERTEX
8
1
10
12.428421
20
23.680504
42
0.024231
0
VERTEX
8
1
10
10.896706
20
23.368835
42
0.017412
0
VERTEX
8
1
10
10.498749
20
23.248558
0
VERTEX
8
1
10
10.459007
20
23.228775
42
0.066111
0
VERTEX
8
1
10
10.496811
20
23.011559
42
-0.040873
0
VERTEX
8
1
10
13.046730
20
23.641495
0
VERTEX
8
1
10
13.197235
20
23.663345
42
0.036357
0
SEQEND
0
POLYLINE
8
1
66
1
70
1
0
VERTEX
8
1
10
11.111404
20
23.623581
42
-0.030531
0
VERTEX
8
1
10
11.584282
20
23.714813
42
0.015946
0
VERTEX
8
1
10
10.421455
20
23.680504
0
VERTEX
8
1
10
10.440208
20
23.406013
42
-0.032617
0
SEQEND
0
POLYLINE
8
1
66
1
70
1
0
VERTEX
8
1
10
10.492149
20
22.055939
0
VERTEX
8
1
10
10.305679
20
21.907372
0
VERTEX
8
1
10
10.452553
20
21.851875
0
VERTEX
8
1
10
10.449539
20
21.612045
0
VERTEX
8
1
10
10.596886
20
21.803551
0
VERTEX
8
1
10
10.795502
20
21.765587
0
VERTEX
8
1
10
10.700516
20
21.955696
0
VERTEX
8
1
10
10.829720
20
22.149796
0
VERTEX
8
1
10
10.625473
20
22.136284
0
VERTEX
8
1
10
10.515480
20
22.276443
0
SEQEND
0
POLYLINE
8
1
66
1
70
1
0
VERTEX
8
1
10
12.936157
20
17.978210
0
VERTEX
8
1
10
13.761429
20
17.978210
42
0.053894
0
VERTEX
8
1
10
13.786438
20
18.161201
42
0.073753
0
SEQEND
0
POLYLINE
8
1
66
1
70
1
0
VERTEX
8
1
10
13.841759
20
18.364944
42
0.094744
0
VERTEX
8
1
10
13.838593
20
18.516937
0
VERTEX
8
1
10
13.807549
20
18.525017
42
0.039390
0
VERTEX
8
1
10
12.551064
20
18.300049
42
0.017708
0
VERTEX
8
1
10
11.586136
20
18.023903
42
0.044263
0
VERTEX
8
1
10
12.251076
20
18.000412
42
-0.043829
0
VERTEX
8
1
10
13.008057
20
18.208252
42
-0.016706
0
VERTEX
8
1
10
13.836449
20
18.344208
42
0.033887
0
SEQEND
0
POLYLINE
8
1
66
1
70
1
0
VERTEX
8
1
10
13.873077
20
18.818649
42
0.093807
0
VERTEX
8
1
10
13.888000
20
19.065788
0
VERTEX
8
1
10
13.823441
20
19.065094
0
VERTEX
8
1
10
13.665962
20
19.035904
42
0.034670
0
VERTEX
8
1
10
11.022728
20
18.311684
0
VERTEX
8
1
10
10.985733
20
18.298546
42
0.007665
0
VERTEX
8
1
10
10.410393
20
18.023956
42
0.035601
0
VERTEX
8
1
10
11.033035
20
18.058784
42
0.090441
0
VERTEX
8
1
10
11.151855
20
18.099251
0
VERTEX
8
1
10
11.266830
20
18.147186
0
VERTEX
8
1
10
11.386749
20
18.193481
42
-0.033261
0
VERTEX
8
1
10
12.697586
20
18.563210
42
-0.016933
0
VERTEX
8
1
10
13.861465
20
18.778831
42
0.024156
0
SEQEND
0
POLYLINE
8
1
66
1
70
1
0
VERTEX
8
1
10
13.776619
20
19.534454
0
VERTEX
8
1
10
13.909546
20
19.696877
0
VERTEX
8
1
10
13.710869
20
19.689285
0
VERTEX
8
1
10
13.605110
20
19.815224
0
VERTEX
8
1
10
13.573242
20
19.622169
0
VERTEX
8
1
10
13.387344
20
19.499840
0
VERTEX
8
1
10
13.526604
20
19.450371
0
VERTEX
8
1
10
13.514542
20
19.240562
0
VERTEX
8
1
10
13.669083
20
19.405724
0
VERTEX
8
1
10
13.862656
20
19.369751
0
SEQEND
0
POLYLINE
8
1
66
1
70
1
0
VERTEX
8
1
10
13.991188
20
22.516014
0
VERTEX
8
1
10
13.898758
20
22.675819
0
VERTEX
8
1
10
14.025055
20
22.834541
0
VERTEX
8
1
10
13.825684
20
22.828201
0
VERTEX
8
1
10
13.714615
20
22.951866
0
VERTEX
8
1
10
13.691231
20
22.763748
0
VERTEX
8
1
10
13.511124
20
22.645271
0
VERTEX
8
1
10
13.652061
20
22.596474
0
VERTEX
8
1
10
13.649033
20
22.389717
0
VERTEX
8
1
10
13.797859
20
22.551781
0
SEQEND
0
POLYLINE
8
1
66
1
70
1
0
VERTEX
8
1
10
17.576294
20
22.577766
0
VERTEX
8
1
10
17.599777
20
22.506477
0
VERTEX
8
1
10
17.540543
20
22.450417
0
VERTEX
8
1
10
17.631546
20
22.446465
0
VERTEX
8
1
10
17.679131
20
22.383537
0
VERTEX
8
1
10
17.711899
20
22.452385
0
VERTEX
8
1
10
17.800529
20
22.469559
0
VERTEX
8
1
10
17.729759
20
22.516060
0
VERTEX
8
1
10
17.736969
20
22.589600
0
VERTEX
8
1
10
17.660477
20
22.549507
0
SEQEND
0
POLYLINE
8
1
66
1
70
1
0
VERTEX
8
1
10
17.456253
20
21.981064
42
-0.090380
0
VERTEX
8
1
10
17.875542
20
21.928139
0
VERTEX
8
1
10
17.957222
20
21.905487
42
0.158617
0
VERTEX
8
1
10
17.990898
20
21.902962
0
VERTEX
8
1
10
17.990685
20
21.906044
42
0.112371
0
VERTEX
8
1
10
17.906723
20
21.961235
42
0.326579
0
VERTEX
8
1
10
16.875359
20
21.726318
42
0.069474
0
VERTEX
8
1
10
16.740166
20
21.537384
0
VERTEX
8
1
10
16.742920
20
21.539040
42
-0.087879
0
VERTEX
8
1
10
17.070877
20
21.853493
42
-0.121593
0
SEQEND
0
POLYLINE
8
1
66
1
70
1
0
VERTEX
8
1
10
17.679359
20
23.344261
0
VERTEX
8
1
10
17.702835
20
23.272964
0
VERTEX
8
1
10
17.643608
20
23.216911
0
VERTEX
8
1
10
17.734619
20
23.212959
0
VERTEX
8
1
10
17.782196
20
23.150032
0
VERTEX
8
1
10
17.814957
20
23.218880
0
VERTEX
8
1
10
17.903587
20
23.236053
0
VERTEX
8
1
10
17.832832
20
23.282547
0
VERTEX
8
1
10
17.840034
20
23.356087
0
VERTEX
8
1
10
17.763542
20
23.315994
0
SEQEND
0
POLYLINE
8
1
66
1
70
1
0
VERTEX
8
1
10
17.249626
20
22.580193
42
0.080181
0
VERTEX
8
1
10
17.218056
20
22.531448
42
0.077639
0
VERTEX
8
1
10
17.269363
20
22.572899
42
-0.099540
0
VERTEX
8
1
10
17.668709
20
22.833992
42
-0.062147
0
VERTEX
8
1
10
17.962654
20
22.888855
42
0.313450
0
VERTEX
8
1
10
17.988861
20
22.900932
0
VERTEX
8
1
10
17.986313
20
22.905853
0
VERTEX
8
1
10
17.979729
20
22.911194
42
0.169750
0
VERTEX
8
1
10
17.764069
20
22.919846
0
VERTEX
8
1
10
17.725143
20
22.909927
42
0.150550
0
SEQEND
0
POLYLINE
8
1
66
1
70
1
0
VERTEX
8
1
10
17.116318
20
23.426270
0
VERTEX
8
1
10
17.139793
20
23.354973
0
VERTEX
8
1
10
17.080566
20
23.298920
0
VERTEX
8
1
10
17.171577
20
23.294968
0
VERTEX
8
1
10
17.219154
20
23.232040
0
VERTEX
8
1
10
17.251915
20
23.300880
0
VERTEX
8
1
10
17.340546
20
23.318062
0
VERTEX
8
1
10
17.269791
20
23.364563
0
VERTEX
8
1
10
17.276993
20
23.438103
0
VERTEX
8
1
10
17.200500
20
23.398003
0
SEQEND
0
POLYLINE
8
1
66
1
70
1
0
VERTEX
8
1
10
16.488304
20
21.869133
42
-0.028003
0
VERTEX
8
1
10
16.218117
20
21.524742
42
0.130919
0
VERTEX
8
1
10
16.203484
20
21.493965
0
VERTEX
8
1
10
16.205894
20
21.489769
0
VERTEX
8
1
10
16.208778
20
21.488335
42
0.152018
0
VERTEX
8
1
10
16.294334
20
21.520294
42
0.109095
0
VERTEX
8
1
10
16.527962
20
21.753677
42
0.041065
0
VERTEX
8
1
10
16.759140
20
22.170868
0
VERTEX
8
1
10
16.849167
20
22.362732
42
-0.027601
0
VERTEX
8
1
10
17.066238
20
22.771599
0
VERTEX
8
1
10
17.068237
20
22.778450
0
VERTEX
8
1
10
17.068008
20
22.779175
42
0.237912
0
VERTEX
8
1
10
17.048180
20
22.765350
42
0.063235
0
VERTEX
8
1
10
16.887627
20
22.558304
42
0.016549
0
VERTEX
8
1
10
16.763992
20
22.349236
42
-0.018647
0
VERTEX
8
1
10
16.512154
20
21.905617
0
SEQEND
0
POLYLINE
8
1
66
1
70
1
0
VERTEX
8
1
10
16.388535
20
23.657249
42
0.583113
0
VERTEX
8
1
10
16.356529
20
23.656822
42
0.151601
0
VERTEX
8
1
10
16.370461
20
23.574532
42
-0.055334
0
VERTEX
8
1
10
16.507378
20
23.170738
42
1.196405
0
VERTEX
8
1
10
16.513763
20
23.174934
0
VERTEX
8
1
10
16.514908
20
23.179222
42
0.095232
0
VERTEX
8
1
10
16.501694
20
23.371162
42
0.055289
0
VERTEX
8
1
10
16.422325
20
23.613617
42
0.091244
0
SEQEND
0
POLYLINE
8
1
66
1
70
1
0
VERTEX
8
1
10
16.408752
20
22.387398
42
0.121049
0
VERTEX
8
1
10
16.327217
20
23.079674
42
0.119349
0
VERTEX
8
1
10
16.222038
20
23.231606
42
0.374132
0
VERTEX
8
1
10
16.206024
20
23.233414
42
0.151132
0
VERTEX
8
1
10
16.220810
20
23.177933
0
VERTEX
8
1
10
16.237846
20
23.135468
42
-0.155644
0
VERTEX
8
1
10
16.334175
20
22.159760
42
0.001592
0
VERTEX
8
1
10
16.305695
20
22.052513
0
VERTEX
8
1
10
16.306015
20
22.052116
42
0.208480
0
VERTEX
8
1
10
16.323433
20
22.077065
42
0.087720
0
SEQEND
0
POLYLINE
8
1
66
1
70
1
0
VERTEX
8
1
10
16.012886
20
23.578415
0
VERTEX
8
1
10
16.036362
20
23.507118
0
VERTEX
8
1
10
15.977127
20
23.451065
0
VERTEX
8
1
10
16.068138
20
23.447113
0
VERTEX
8
1
10
16.115723
20
23.384186
0
VERTEX
8
1
10
16.148483
20
23.453026
0
VERTEX
8
1
10
16.237114
20
23.470215
0
VERTEX
8
1
10
16.166351
20
23.516701
0
VERTEX
8
1
10
16.173553
20
23.590240
0
VERTEX
8
1
10
16.097061
20
23.550148
0
SEQEND
0
POLYLINE
8
1
66
1
70
1
0
VERTEX
8
1
10
15.691864
20
20.198586
0
VERTEX
8
1
10
15.691353
20
20.242065
0
VERTEX
8
1
10
15.691521
20
20.280258
0
VERTEX
8
1
10
15.692970
20
20.318420
42
-0.198018
0
VERTEX
8
1
10
15.887955
20
20.781303
42
0.038668
0
VERTEX
8
1
10
15.963173
20
20.859497
42
0.932885
0
VERTEX
8
1
10
15.950783
20
20.874565
0
VERTEX
8
1
10
15.942711
20
20.873497
42
0.176081
0
VERTEX
8
1
10
15.776039
20
20.748817
42
0.192221
0
VERTEX
8
1
10
15.662086
20
20.269722
42
0.080468
0
VERTEX
8
1
10
15.687553
20
20.154976
0
VERTEX
8
1
10
15.688599
20
20.154236
0
VERTEX
8
1
10
15.689499
20
20.154465
42
0.134432
0
SEQEND
0
POLYLINE
8
1
66
1
70
1
0
VERTEX
8
1
10
16.018295
20
20.979927
42
0.409041
0
VERTEX
8
1
10
16.040092
20
20.982063
0
VERTEX
8
1
10
16.038383
20
20.986031
42
0.078750
0
VERTEX
8
1
10
15.898979
20
21.091354
42
0.030985
0
VERTEX
8
1
10
15.358109
20
21.365364
42
0.020814
0
VERTEX
8
1
10
14.336334
20
21.777725
42
0.228207
0
VERTEX
8
1
10
14.322540
20
21.779205
0
VERTEX
8
1
10
14.327278
20
21.775864
42
0.019537
0
VERTEX
8
1
10
14.677139
20
21.615517
42
-0.019596
0
VERTEX
8
1
10
15.865959
20
21.046616
42
0.045535
0
SEQEND
0
POLYLINE
8
1
66
1
70
1
0
VERTEX
8
1
10
15.530663
20
21.039467
42
0.099566
0
VERTEX
8
1
10
14.764618
20
21.078484
42
0.115730
0
VERTEX
8
1
10
14.516579
20
20.987015
42
0.171943
0
VERTEX
8
1
10
14.488396
20
20.953690
0
VERTEX
8
1
10
14.489067
20
20.952110
42
0.217522
0
VERTEX
8
1
10
14.526398
20
20.960037
42
-0.109774
0
VERTEX
8
1
10
15.118362
20
21.068878
42
-0.040577
0
VERTEX
8
1
10
15.602509
20
21.015800
42
0.061341
0
SEQEND
0
POLYLINE
8
1
66
1
70
1
0
VERTEX
8
1
10
15.147469
20
21.308144
42
0.180963
0
VERTEX
8
1
10
14.375786
20
21.412071
42
0.157726
0
VERTEX
8
1
10
14.330818
20
21.391655
0
VERTEX
8
1
10
14.335266
20
21.390137
42
-0.012123
0
VERTEX
8
1
10
14.599342
20
21.415672
42
-0.127560
0
VERTEX
8
1
10
15.184113
20
21.284142
42
0.043905
0
SEQEND
0
POLYLINE
8
1
66
1
70
1
0
VERTEX
8
1
10
16.025261
20
21.053749
42
1.043365
0
VERTEX
8
1
10
16.029930
20
21.060219
42
0.088137
0
VERTEX
8
1
10
15.936516
20
21.167313
0
VERTEX
8
1
10
15.898140
20
21.201614
0
VERTEX
8
1
10
15.858238
20
21.234146
42
0.052132
0
VERTEX
8
1
10
15.311478
20
21.551743
42
0.004645
0
VERTEX
8
1
10
14.835747
20
21.778717
0
VERTEX
8
1
10
14.836243
20
21.777740
0
VERTEX
8
1
10
14.838272
20
21.775894
42
0.031189
0
VERTEX
8
1
10
15.168793
20
21.591202
42
-0.033541
0
VERTEX
8
1
10
15.759201
20
21.254204
42
-0.008290
0
VERTEX
8
1
10
16.017471
20
21.057671
42
0.027872
0
SEQEND
0
POLYLINE
8
1
66
1
70
1
0
VERTEX
8
1
10
15.795494
20
22.563797
0
VERTEX
8
1
10
15.818977
20
22.492500
0
VERTEX
8
1
10
15.759743
20
22.436447
0
VERTEX
8
1
10
15.850754
20
22.432495
0
VERTEX
8
1
10
15.898331
20
22.369568
0
VERTEX
8
1
10
15.931099
20
22.438416
0
VERTEX
8
1
10
16.019730
20
22.455589
0
VERTEX
8
1
10
15.948967
20
22.502083
0
VERTEX
8
1
10
15.956169
20
22.575630
0
VERTEX
8
1
10
15.879677
20
22.535530
0
SEQEND
0
POLYLINE
8
1
66
1
70
1
0
VERTEX
8
1
10
14.962677
20
22.928452
0
VERTEX
8
1
10
14.878494
20
22.956711
0
VERTEX
8
1
10
14.901985
20
22.885422
0
VERTEX
8
1
10
14.842743
20
22.829361
0
VERTEX
8
1
10
14.933754
20
22.825409
0
VERTEX
8
1
10
14.981339
20
22.762482
0
VERTEX
8
1
10
15.014107
20
22.831329
0
VERTEX
8
1
10
15.102737
20
22.848511
0
VERTEX
8
1
10
15.031967
20
22.895004
0
VERTEX
8
1
10
15.039177
20
22.968544
0
SEQEND
0
POLYLINE
8
1
66
1
70
1
0
VERTEX
8
1
10
14.705391
20
23.242569
42
-0.045649
0
VERTEX
8
1
10
14.847626
20
23.108200
0
VERTEX
8
1
10
14.850189
20
23.107140
0
VERTEX
8
1
10
14.851517
20
23.108185
42
0.131386
0
VERTEX
8
1
10
14.797493
20
23.208046
42
0.113035
0
VERTEX
8
1
10
14.561172
20
23.398460
42
0.177076
0
VERTEX
8
1
10
14.497231
20
23.403694
42
0.510264
0
VERTEX
8
1
10
14.502007
20
23.374146
42
0.093459
0
VERTEX
8
1
10
14.592674
20
23.315430
42
-0.032638
0
SEQEND
0
POLYLINE
8
1
66
1
70
1
0
VERTEX
8
1
10
14.650139
20
22.764534
42
-0.036440
0
VERTEX
8
1
10
15.363823
20
22.087440
42
-0.056859
0
VERTEX
8
1
10
15.788338
20
21.484528
42
0.030842
0
VERTEX
8
1
10
15.938194
20
21.235695
42
0.310159
0
VERTEX
8
1
10
15.971626
20
21.214035
42
0.217344
0
VERTEX
8
1
10
15.977257
20
21.260498
42
0.063804
0
VERTEX
8
1
10
15.924477
20
21.441284
42
0.072790
0
VERTEX
8
1
10
15.767372
20
22.187675
42
0.063687
0
VERTEX
8
1
10
15.247551
20
23.212090
42
0.066257
0
VERTEX
8
1
10
15.052361
20
23.432213
42
0.179932
0
VERTEX
8
1
10
15.007965
20
23.452721
42
0.344661
0
VERTEX
8
1
10
15.005798
20
23.424957
0
VERTEX
8
1
10
15.010048
20
23.412369
0
VERTEX
8
1
10
15.017540
20
23.394539
42
0.032352
0
VERTEX
8
1
10
15.231339
20
23.033630
42
-0.059177
0
VERTEX
8
1
10
15.758217
20
21.984978
42
-0.030989
0
VERTEX
8
1
10
15.887856
20
21.523117
42
0.063428
0
VERTEX
8
1
10
15.546532
20
22.018753
42
0.053712
0
VERTEX
8
1
10
14.713150
20
22.770668
42
0.025802
0
VERTEX
8
1
10
14.430443
20
22.967346
0
VERTEX
8
1
10
14.420143
20
22.972374
0
VERTEX
8
1
10
14.415543
20
22.973099
0
VERTEX
8
1
10
14.416740
20
22.969315
0
VERTEX
8
1
10
14.423660
20
22.961266
42
0.013432
0
SEQEND
0
POLYLINE
8
1
66
1
70
1
0
VERTEX
8
1
10
14.482239
20
22.150932
42
-0.116300
0
VERTEX
8
1
10
15.308136
20
21.777557
42
0.050471
0
VERTEX
8
1
10
15.443504
20
21.691071
42
0.674193
0
VERTEX
8
1
10
15.460365
20
21.695969
42
0.121121
0
VERTEX
8
1
10
15.389519
20
21.784416
0
VERTEX
8
1
10
15.362129
20
21.808914
42
0.147143
0
VERTEX
8
1
10
14.417343
20
22.180939
42
0.066511
0
VERTEX
8
1
10
14.304802
20
22.179260
42
0.247299
0
VERTEX
8
1
10
14.325562
20
22.174034
42
-0.011277
0
SEQEND
0
POLYLINE
8
1
66
1
70
1
0
VERTEX
8
1
10
14.437164
20
21.224991
42
-0.041193
0
VERTEX
8
1
10
15.222412
20
21.131981
42
0.073990
0
VERTEX
8
1
10
15.425896
20
21.115181
42
0.687841
0
VERTEX
8
1
10
15.434341
20
21.126656
0
VERTEX
8
1
10
15.426720
20
21.132538
42
0.079167
0
VERTEX
8
1
10
15.226547
20
21.193848
42
0.061636
0
VERTEX
8
1
10
14.446671
20
21.254547
42
0.056217
0
VERTEX
8
1
10
14.283714
20
21.233131
0
VERTEX
8
1
10
14.285797
20
21.231964
42
0.042699
0
SEQEND
0
POLYLINE
8
1
66
1
70
1
0
VERTEX
8
1
10
14.901466
20
20.845230
42
-0.062561
0
VERTEX
8
1
10
15.209663
20
20.895142
42
0.106470
0
VERTEX
8
1
10
15.289581
20
20.911331
42
0.594612
0
VERTEX
8
1
10
15.288010
20
20.934792
42
0.169957
0
VERTEX
8
1
10
15.145302
20
20.969505
42
0.086839
0
VERTEX
8
1
10
14.828377
20
20.890038
42
0.033703
0
VERTEX
8
1
10
14.419243
20
20.686264
0
VERTEX
8
1
10
14.417053
20
20.682564
0
VERTEX
8
1
10
14.420685
20
20.681213
42
0.059036
0
VERTEX
8
1
10
14.574585
20
20.728798
42
-0.021569
0
SEQEND
0
POLYLINE
8
1
66
1
70
1
0
VERTEX
8
1
10
14.510880
20
20.311729
0
VERTEX
8
1
10
14.570129
20
20.348251
42
-0.037016
0
VERTEX
8
1
10
15.363274
20
20.776390
42
-0.049695
0
VERTEX
8
1
10
15.878967
20
20.930145
0
VERTEX
8
1
10
15.888199
20
20.933670
42
0.853822
0
VERTEX
8
1
10
15.887703
20
20.949608
42
0.138120
0
VERTEX
8
1
10
15.756691
20
20.974709
42
0.095311
0
VERTEX
8
1
10
15.416603
20
20.893585
42
0.076076
0
VERTEX
8
1
10
14.443657
20
20.291084
42
0.176337
0
VERTEX
8
1
10
14.421402
20
20.263641
42
0.076742
0
VERTEX
8
1
10
14.466270
20
20.285301
0
SEQEND
0
POLYLINE
8
1
66
1
70
1
0
VERTEX
8
1
10
14.829140
20
19.229424
0
VERTEX
8
1
10
14.908691
20
19.246605
0
VERTEX
8
1
10
14.845177
20
19.293098
0
VERTEX
8
1
10
14.851639
20
19.366638
0
VERTEX
8
1
10
14.782982
20
19.326546
0
VERTEX
8
1
10
14.707420
20
19.354805
0
VERTEX
8
1
10
14.728500
20
19.283516
0
VERTEX
8
1
10
14.675339
20
19.227463
0
VERTEX
8
1
10
14.757027
20
19.223511
0
VERTEX
8
1
10
14.799736
20
19.160583
0
SEQEND
0
POLYLINE
8
1
66
1
70
1
0
VERTEX
8
1
10
14.809410
20
20.029572
0
VERTEX
8
1
10
14.818832
20
19.987846
0
VERTEX
8
1
10
14.795059
20
19.955040
0
VERTEX
8
1
10
14.831581
20
19.952721
0
VERTEX
8
1
10
14.850677
20
19.915901
0
VERTEX
8
1
10
14.863831
20
19.956184
0
VERTEX
8
1
10
14.899391
20
19.966248
0
VERTEX
8
1
10
14.870995
20
19.993454
0
VERTEX
8
1
10
14.873886
20
20.036499
0
VERTEX
8
1
10
14.843193
20
20.013031
0
SEQEND
0
POLYLINE
8
1
66
1
70
1
0
VERTEX
8
1
10
15.078888
20
20.535385
0
VERTEX
8
1
10
15.082764
20
20.539490
42
2.064773
0
VERTEX
8
1
10
15.079254
20
20.542618
0
VERTEX
8
1
10
15.062981
20
20.534286
0
VERTEX
8
1
10
15.047073
20
20.525291
0
VERTEX
8
1
10
15.031548
20
20.515640
42
0.210697
0
VERTEX
8
1
10
14.590080
20
19.802307
42
0.105661
0
VERTEX
8
1
10
14.599930
20
19.698204
42
0.831686
0
VERTEX
8
1
10
14.619400
20
19.698509
42
0.054303
0
VERTEX
8
1
10
14.650803
20
19.799431
0
VERTEX
8
1
10
14.672264
20
19.892128
42
-0.172840
0
SEQEND
0
POLYLINE
8
1
66
1
70
1
0
VERTEX
8
1
10
15.131195
20
20.167778
42
-0.105225
0
VERTEX
8
1
10
15.555183
20
20.594635
0
VERTEX
8
1
10
15.632057
20
20.646324
42
0.147522
0
VERTEX
8
1
10
15.648727
20
20.661888
0
VERTEX
8
1
10
15.647087
20
20.661949
0
VERTEX
8
1
10
15.644440
20
20.661461
42
0.156667
0
VERTEX
8
1
10
15.047417
20
20.151794
42
0.129877
0
VERTEX
8
1
10
15.009857
20
20.032059
0
VERTEX
8
1
10
15.010712
20
20.025002
42
0.830969
0
VERTEX
8
1
10
15.031647
20
20.020699
42
0.051290
0
VERTEX
8
1
10
15.090118
20
20.101936
0
SEQEND
0
POLYLINE
8
1
66
1
70
1
0
VERTEX
8
1
10
16.058746
20
20.539871
42
0.094424
0
VERTEX
8
1
10
16.071869
20
20.709023
42
0.538903
0
VERTEX
8
1
10
16.045319
20
20.730095
0
VERTEX
8
1
10
16.037560
20
20.724930
42
0.091076
0
VERTEX
8
1
10
15.946999
20
20.568054
42
0.023526
0
VERTEX
8
1
10
15.826714
20
20.249313
42
-0.040951
0
VERTEX
8
1
10
15.382408
20
19.252502
42
-0.013326
0
VERTEX
8
1
10
15.219299
20
18.990097
0
VERTEX
8
1
10
15.217239
20
18.985382
42
1.267775
0
VERTEX
8
1
10
15.223450
20
18.981445
42
0.076329
0
VERTEX
8
1
10
15.341286
20
19.098351
42
0.048528
0
VERTEX
8
1
10
15.647949
20
19.568573
42
0.041565
0
VERTEX
8
1
10
16.034355
20
20.445717
0
VERTEX
8
1
10
16.047348
20
20.492584
0
SEQEND
0
POLYLINE
8
1
66
1
70
1
0
VERTEX
8
1
10
16.099228
20
21.258141
0
VERTEX
8
1
10
16.181953
20
21.294930
0
VERTEX
8
1
10
16.231102
20
21.319962
42
0.076617
0
VERTEX
8
1
10
16.741913
20
21.728676
42
0.039170
0
VERTEX
8
1
10
17.324074
20
22.447090
0
VERTEX
8
1
10
17.331429
20
22.461266
0
VERTEX
8
1
10
17.332626
20
22.468452
0
VERTEX
8
1
10
17.327354
20
22.468224
0
VERTEX
8
1
10
17.315941
20
22.460640
42
0.036326
0
VERTEX
8
1
10
17.058235
20
22.182327
42
-0.024615
0
VERTEX
8
1
10
16.577843
20
21.648643
42
-0.079154
0
VERTEX
8
1
10
16.142494
20
21.331291
42
-0.062309
0
VERTEX
8
1
10
16.137611
20
21.737801
42
0.007966
0
VERTEX
8
1
10
16.187721
20
22.266342
42
0.075336
0
VERTEX
8
1
10
16.158760
20
22.743057
42
0.117237
0
VERTEX
8
1
10
16.037743
20
23.003471
0
VERTEX
8
1
10
16.037628
20
23.003197
42
-0.125473
0
VERTEX
8
1
10
16.159203
20
22.554039
42
-0.042434
0
VERTEX
8
1
10
16.127594
20
22.054573
0
VERTEX
8
1
10
16.110146
20
21.916504
42
0.045464
0
VERTEX
8
1
10
16.079117
20
21.405968
42
0.033507
0
SEQEND
0
POLYLINE
8
1
66
1
70
1
0
VERTEX
8
1
10
16.435150
20
19.927940
42
0.091894
0
VERTEX
8
1
10
16.340843
20
20.323822
42
0.134998
0
VERTEX
8
1
10
16.263535
20
20.417557
42
0.688964
0
VERTEX
8
1
10
16.242104
20
20.406067
0
VERTEX
8
1
10
16.240776
20
20.398499
42
0.085034
0
VERTEX
8
1
10
16.275208
20
20.237366
42
-0.102114
0
VERTEX
8
1
10
16.359703
20
19.725670
42
-0.069732
0
VERTEX
8
1
10
16.293259
20
19.459854
42
1.186962
0
VERTEX
8
1
10
16.298927
20
19.457039
42
0.126614
0
VERTEX
8
1
10
16.392273
20
19.608521
42
0.103538
0
SEQEND
0
POLYLINE
8
1
66
1
70
1
0
VERTEX
8
1
10
16.780289
20
19.962082
0
VERTEX
8
1
10
16.776604
20
19.986053
0
VERTEX
8
1
10
16.771614
20
20.009796
42
0.138456
0
VERTEX
8
1
10
16.412796
20
20.573608
42
0.106491
0
VERTEX
8
1
10
16.223969
20
20.685585
42
1.046000
0
VERTEX
8
1
10
16.218132
20
20.681664
0
VERTEX
8
1
10
16.222214
20
20.676834
42
-0.136920
0
VERTEX
8
1
10
16.602684
20
20.175484
42
-0.011899
0
VERTEX
8
1
10
16.684875
20
19.952950
42
0.118572
0
VERTEX
8
1
10
16.742393
20
19.858063
42
0.582929
0
VERTEX
8
1
10
16.774162
20
19.871887
42
0.115476
0
SEQEND
0
POLYLINE
8
1
66
1
70
1
0
VERTEX
8
1
10
17.020836
20
19.360268
0
VERTEX
8
1
10
17.109467
20
19.377449
0
VERTEX
8
1
10
17.038712
20
19.423943
0
VERTEX
8
1
10
17.045914
20
19.497490
0
VERTEX
8
1
10
16.969421
20
19.457390
0
VERTEX
8
1
10
16.885239
20
19.485657
0
VERTEX
8
1
10
16.908714
20
19.414360
0
VERTEX
8
1
10
16.849487
20
19.358307
0
VERTEX
8
1
10
16.940498
20
19.354355
0
VERTEX
8
1
10
16.988075
20
19.291428
0
SEQEND
0
POLYLINE
8
1
66
1
70
1
0
VERTEX
8
1
10
17.039955
20
20.108925
42
-0.009367
0
VERTEX
8
1
10
17.222511
20
19.841278
0
VERTEX
8
1
10
17.225273
20
19.839569
0
VERTEX
8
1
10
17.225670
20
19.842392
42
0.051521
0
VERTEX
8
1
10
17.132294
20
20.029671
42
0.085711
0
VERTEX
8
1
10
16.605194
20
20.670769
42
0.104190
0
VERTEX
8
1
10
16.254646
20
20.868080
42
0.116816
0
VERTEX
8
1
10
16.154625
20
20.880516
42
0.959056
0
VERTEX
8
1
10
16.156685
20
20.868286
0
VERTEX
8
1
10
16.163490
20
20.863792
0
VERTEX
8
1
10
16.172493
20
20.858681
42
-0.112356
0
VERTEX
8
1
10
16.826912
20
20.374718
42
-0.027412
0
SEQEND
0
POLYLINE
8
1
66
1
70
1
0
VERTEX
8
1
10
17.677773
20
19.277588
0
VERTEX
8
1
10
17.685303
20
19.265388
42
0.680087
0
VERTEX
8
1
10
17.719902
20
19.259880
42
0.169890
0
VERTEX
8
1
10
17.715340
20
19.362038
42
0.133637
0
VERTEX
8
1
10
17.507042
20
19.703407
42
0.204684
0
VERTEX
8
1
10
17.478661
20
19.719734
0
VERTEX
8
1
10
17.479057
20
19.716957
0
VERTEX
8
1
10
17.481125
20
19.712547
42
-0.100011
0
VERTEX
8
1
10
17.661407
20
19.315636
42
0.034666
0
SEQEND
0
POLYLINE
8
1
66
1
70
1
0
VERTEX
8
1
10
17.739265
20
19.663475
42
0.229229
0
VERTEX
8
1
10
17.763954
20
19.641434
0
VERTEX
8
1
10
17.767937
20
19.644142
0
VERTEX
8
1
10
17.770653
20
19.650322
0
VERTEX
8
1
10
17.772018
20
19.659691
42
0.121926
0
VERTEX
8
1
10
17.719589
20
19.823814
0
VERTEX
8
1
10
17.705109
20
19.849091
42
0.120378
0
VERTEX
8
1
10
17.092049
20
20.437836
42
0.246946
0
VERTEX
8
1
10
17.084785
20
20.439072
42
0.081202
0
VERTEX
8
1
10
17.106682
20
20.417229
0
VERTEX
8
1
10
17.177353
20
20.358253
0
VERTEX
8
1
10
17.224106
20
20.318268
42
-0.100688
0
VERTEX
8
1
10
17.710442
20
19.710060
42
0.012290
0
SEQEND
0
POLYLINE
8
1
66
1
70
1
0
VERTEX
8
1
10
17.804520
20
20.160332
42
0.352660
0
VERTEX
8
1
10
17.829086
20
20.157539
0
VERTEX
8
1
10
17.829048
20
20.161980
42
0.118723
0
VERTEX
8
1
10
17.766060
20
20.241295
42
0.072775
0
VERTEX
8
1
10
17.442490
20
20.435341
42
0.073112
0
VERTEX
8
1
10
16.646713
20
20.661194
42
2.023648
0
VERTEX
8
1
10
16.647148
20
20.657707
42
0.030312
0
VERTEX
8
1
10
16.687111
20
20.644943
0
VERTEX
8
1
10
16.806053
20
20.612083
42
-0.063299
0
VERTEX
8
1
10
17.557755
20
20.312950
42
0.009376
0
VERTEX
8
1
10
17.793076
20
20.166664
0
SEQEND
0
POLYLINE
8
1
66
1
70
1
0
VERTEX
8
1
10
17.977013
20
20.268959
42
0.066505
0
VERTEX
8
1
10
17.680450
20
20.483879
0
VERTEX
8
1
10
17.644417
20
20.504562
42
0.068812
0
VERTEX
8
1
10
16.456947
20
20.949776
42
0.069402
0
VERTEX
8
1
10
16.221764
20
20.972313
42
0.312825
0
VERTEX
8
1
10
16.205872
20
20.962387
0
VERTEX
8
1
10
16.208961
20
20.957481
0
VERTEX
8
1
10
16.216049
20
20.951981
42
0.044281
0
VERTEX
8
1
10
16.492653
20
20.861481
42
-0.047182
0
VERTEX
8
1
10
17.546112
20
20.497765
42
-0.027766
0
VERTEX
8
1
10
17.973671
20
20.261948
0
VERTEX
8
1
10
17.978485
20
20.259941
0
VERTEX
8
1
10
17.981766
20
20.259628
42
0.243580
0
SEQEND
0
POLYLINE
8
1
66
1
70
1
0
VERTEX
8
1
10
17.749107
20
20.863640
0
VERTEX
8
1
10
17.767471
20
20.805016
0
VERTEX
8
1
10
17.721146
20
20.758926
0
VERTEX
8
1
10
17.792336
20
20.755676
0
VERTEX
8
1
10
17.829559
20
20.703934
0
VERTEX
8
1
10
17.855186
20
20.760544
0
VERTEX
8
1
10
17.924522
20
20.774666
0
VERTEX
8
1
10
17.869164
20
20.812897
0
VERTEX
8
1
10
17.874802
20
20.873367
0
VERTEX
8
1
10
17.814957
20
20.840401
0
SEQEND
0
POLYLINE
8
1
66
1
70
1
0
VERTEX
8
1
10
17.982635
20
20.962959
42
0.074013
0
VERTEX
8
1
10
18.002991
20
20.964439
42
0.055941
0
VERTEX
8
1
10
17.902473
20
20.982956
0
VERTEX
8
1
10
17.604233
20
21.027824
42
0.034221
0
VERTEX
8
1
10
16.815025
20
21.107277
0
VERTEX
8
1
10
16.740692
20
21.107254
0
VERTEX
8
1
10
16.666389
20
21.105232
42
0.087739
0
VERTEX
8
1
10
16.275986
20
21.035706
42
0.307059
0
VERTEX
8
1
10
16.252182
20
21.017090
42
0.185696
0
VERTEX
8
1
10
16.291161
20
21.013992
42
-0.018689
0
VERTEX
8
1
10
16.780800
20
21.053123
42
-0.030153
0
VERTEX
8
1
10
17.400513
20
21.017616
0
VERTEX
8
1
10
17.693184
20
20.986229
42
0.019600
0
SEQEND
0
POLYLINE
8
1
66
1
70
1
0
VERTEX
8
1
10
17.174957
20
21.309174
42
-0.181303
0
VERTEX
8
1
10
17.885559
20
21.183685
42
0.042184
0
VERTEX
8
1
10
17.977226
20
21.137009
42
1.114165
0
VERTEX
8
1
10
17.979645
20
21.145218
0
VERTEX
8
1
10
17.975563
20
21.150566
0
VERTEX
8
1
10
17.967651
20
21.158890
42
0.110364
0
VERTEX
8
1
10
17.695335
20
21.300140
42
0.177598
0
VERTEX
8
1
10
17.030449
20
21.275612
0
VERTEX
8
1
10
17.033623
20
21.275681
42
-0.017489
0
SEQEND
0
POLYLINE
8
1
66
1
70
1
0
VERTEX
8
1
10
18.013855
20
21.644043
42
0.097766
0
VERTEX
8
1
10
18.033585
20
21.654198
0
VERTEX
8
1
10
18.032326
20
21.656059
42
0.045869
0
VERTEX
8
1
10
17.829559
20
21.635818
42
0.034714
0
VERTEX
8
1
10
16.778000
20
21.414787
42
0.042339
0
VERTEX
8
1
10
16.328560
20
21.247200
0
VERTEX
8
1
10
16.281052
20
21.221275
42
0.107298
0
VERTEX
8
1
10
16.133591
20
21.106735
42
0.846326
0
VERTEX
8
1
10
16.148514
20
21.079697
42
0.086819
0
VERTEX
8
1
10
16.255135
20
21.104973
42
0.014197
0
VERTEX
8
1
10
16.610703
20
21.242668
42
-0.032903
0
VERTEX
8
1
10
17.636795
20
21.544983
42
0.022289
0
SEQEND
0
POLYLINE
8
1
66
1
0
VERTEX
8
1
10
17.640640
20
18.135933
42
0.120433
0
VERTEX
8
1
10
17.829033
20
18.150780
0
VERTEX
8
1
10
17.855728
20
18.166206
42
0.241930
0
VERTEX
8
1
10
17.953987
20
18.393677
42
0.382011
0
VERTEX
8
1
10
17.740944
20
18.655495
42
0.075502
0
VERTEX
8
1
10
17.640640
20
18.660240
0
SEQEND
0
POLYLINE
8
1
66
1
0
VERTEX
8
1
10
17.213554
20
18.132462
0
VERTEX
8
1
10
17.453140
20
18.132462
0
VERTEX
8
1
10
17.453140
20
18.656769
0
VERTEX
8
1
10
17.203140
20
18.656769
0
SEQEND
0
LINE
8
1
10
17.258690
20
18.410240
11
17.407997
21
18.410240
0
POLYLINE
8
1
66
1
0
VERTEX
8
1
10
16.824669
20
18.132462
0
VERTEX
8
1
10
17.053833
20
18.132462
0
VERTEX
8
1
10
17.053833
20
18.681068
0
SEQEND
0
POLYLINE
8
1
66
1
0
VERTEX
8
1
10
16.463554
20
18.132462
0
VERTEX
8
1
10
16.703140
20
18.132462
0
VERTEX
8
1
10
16.703140
20
18.656769
0
VERTEX
8
1
10
16.453140
20
18.656769
0
SEQEND
0
LINE
8
1
10
16.508690
20
18.410240
11
16.657997
21
18.410240
0
POLYLINE
8
1
66
1
0
VERTEX
8
1
10
16.053833
20
18.323433
42
0.324128
0
VERTEX
8
1
10
16.034760
20
18.258102
42
0.063188
0
VERTEX
8
1
10
16.059250
20
18.180504
0
VERTEX
8
1
10
16.076080
20
18.162498
42
0.152556
0
VERTEX
8
1
10
16.223976
20
18.125107
0
VERTEX
8
1
10
16.240601
20
18.125481
0
VERTEX
8
1
10
16.299774
20
18.125519
0
VERTEX
8
1
10
16.300362
20
18.127907
0
VERTEX
8
1
10
16.300293
20
18.656769
0
VERTEX
8
1
10
16.241333
20
18.656769
0
SEQEND
0
POLYLINE
8
1
66
1
0
VERTEX
8
1
10
16.220497
20
18.410240
42
-0.161204
0
VERTEX
8
1
10
16.092567
20
18.437965
42
-0.262147
0
VERTEX
8
1
10
16.046890
20
18.549126
42
-0.404578
0
VERTEX
8
1
10
16.126747
20
18.656768
0
SEQEND
0
POLYLINE
8
1
66
1
0
VERTEX
8
1
10
15.748276
20
18.385933
0
VERTEX
8
1
10
15.723732
20
18.387932
42
-0.326471
0
VERTEX
8
1
10
15.615791
20
18.484200
42
-0.512290
0
VERTEX
8
1
10
15.709435
20
18.653587
0
VERTEX
8
1
10
15.719795
20
18.655479
0
VERTEX
8
1
10
15.730247
20
18.656731
0
VERTEX
8
1
10
15.868301
20
18.649902
0
VERTEX
8
1
10
15.869804
20
18.649162
0
VERTEX
8
1
10
15.869804
20
18.115097
0
SEQEND
0
POLYLINE
8
1
66
1
0
VERTEX
8
1
10
15.595497
20
18.104683
0
VERTEX
8
1
10
15.602570
20
18.117706
42
0.037407
0
VERTEX
8
1
10
15.642647
20
18.296356
42
-0.187646
0
VERTEX
8
1
10
15.678833
20
18.347741
0
SEQEND
0
POLYLINE
8
1
66
1
0
VERTEX
8
1
10
15.102440
20
18.111626
0
VERTEX
8
1
10
15.265640
20
18.649818
0
VERTEX
8
1
10
15.314247
20
18.646347
0
VERTEX
8
1
10
15.467026
20
18.115097
0
SEQEND
0
LINE
8
1
10
15.276054
20
18.319962
11
15.178833
21
18.319962
0
LINE
8
1
10
14.713554
20
18.646347
11
15.105919
21
18.646347
0
LINE
8
1
10
14.914940
20
18.111626
11
14.914940
21
18.625519
0
POLYLINE
8
1
66
1
0
VERTEX
8
1
10
14.387169
20
18.132462
0
VERTEX
8
1
10
14.626747
20
18.132462
0
VERTEX
8
1
10
14.626747
20
18.656769
0
VERTEX
8
1
10
14.376747
20
18.656769
0
SEQEND
0
LINE
8
1
10
14.432304
20
18.410240
11
14.581612
21
18.410240
0
POLYLINE
8
1
66
1
0
VERTEX
8
1
10
9.640640
20
18.135933
42
0.120433
0
VERTEX
8
1
10
9.829033
20
18.150780
0
VERTEX
8
1
10
9.855728
20
18.166206
42
0.241963
0
VERTEX
8
1
10
9.953979
20
18.393677
42
0.382074
0
VERTEX
8
1
10
9.740944
20
18.655495
42
0.075500
0
VERTEX
8
1
10
9.640640
20
18.660240
0
SEQEND
0
POLYLINE
8
1
66
1
0
VERTEX
8
1
10
9.213554
20
18.132462
0
VERTEX
8
1
10
9.453140
20
18.132462
0
VERTEX
8
1
10
9.453140
20
18.656769
0
VERTEX
8
1
10
9.203140
20
18.656769
0
SEQEND
0
LINE
8
1
10
9.258690
20
18.410240
11
9.407997
21
18.410240
0
POLYLINE
8
1
66
1
0
VERTEX
8
1
10
8.824669
20
18.132462
0
VERTEX
8
1
10
9.053833
20
18.132462
0
VERTEX
8
1
10
9.053833
20
18.681068
0
SEQEND
0
POLYLINE
8
1
66
1
0
VERTEX
8
1
10
8.463554
20
18.132462
0
VERTEX
8
1
10
8.703140
20
18.132462
0
VERTEX
8
1
10
8.703140
20
18.656769
0
VERTEX
8
1
10
8.453140
20
18.656769
0
SEQEND
0
LINE
8
1
10
8.508690
20
18.410240
11
8.657997
21
18.410240
0
POLYLINE
8
1
66
1
0
VERTEX
8
1
10
8.053833
20
18.323433
42
0.324224
0
VERTEX
8
1
10
8.034767
20
18.258102
42
0.063295
0
VERTEX
8
1
10
8.059250
20
18.180504
0
VERTEX
8
1
10
8.076073
20
18.162498
42
0.152536
0
VERTEX
8
1
10
8.223976
20
18.125107
0
VERTEX
8
1
10
8.240601
20
18.125481
0
VERTEX
8
1
10
8.299767
20
18.125519
0
VERTEX
8
1
10
8.300362
20
18.127907
0
VERTEX
8
1
10
8.300293
20
18.656769
0
VERTEX
8
1
10
8.241333
20
18.656769
0
SEQEND
0
POLYLINE
8
1
66
1
0
VERTEX
8
1
10
8.220497
20
18.410240
42
-0.161204
0
VERTEX
8
1
10
8.092567
20
18.437965
42
-0.262264
0
VERTEX
8
1
10
8.046890
20
18.549126
42
-0.404578
0
VERTEX
8
1
10
8.126747
20
18.656768
0
SEQEND
0
POLYLINE
8
1
66
1
0
VERTEX
8
1
10
7.748276
20
18.385933
0
VERTEX
8
1
10
7.723732
20
18.387932
42
-0.326472
0
VERTEX
8
1
10
7.615791
20
18.484200
42
-0.512265
0
VERTEX
8
1
10
7.709427
20
18.653587
0
VERTEX
8
1
10
7.719788
20
18.655479
0
VERTEX
8
1
10
7.730247
20
18.656731
0
VERTEX
8
1
10
7.868309
20
18.649902
0
VERTEX
8
1
10
7.869804
20
18.649162
0
VERTEX
8
1
10
7.869804
20
18.115097
0
SEQEND
0
POLYLINE
8
1
66
1
0
VERTEX
8
1
10
7.595497
20
18.104683
0
VERTEX
8
1
10
7.602570
20
18.117706
42
0.037407
0
VERTEX
8
1
10
7.642647
20
18.296356
42
-0.187646
0
VERTEX
8
1
10
7.678833
20
18.347741
0
SEQEND
0
POLYLINE
8
1
66
1
0
VERTEX
8
1
10
7.102440
20
18.111626
0
VERTEX
8
1
10
7.265640
20
18.649818
0
VERTEX
8
1
10
7.314247
20
18.646347
0
VERTEX
8
1
10
7.467026
20
18.115097
0
SEQEND
0
LINE
8
1
10
7.276054
20
18.319962
11
7.178833
21
18.319962
0
LINE
8
1
10
6.713554
20
18.646347
11
7.105919
21
18.646347
0
LINE
8
1
10
6.914940
20
18.111626
11
6.914940
21
18.625519
0
POLYLINE
8
1
66
1
0
VERTEX
8
1
10
6.387169
20
18.132462
0
VERTEX
8
1
10
6.626747
20
18.132462
0
VERTEX
8
1
10
6.626747
20
18.656769
0
VERTEX
8
1
10
6.376747
20
18.656769
0
SEQEND
0
LINE
8
1
10
6.432304
20
18.410240
11
6.581612
21
18.410240
0
LINE
8
1
10
6.165367
20
18.346512
11
6.165367
21
23.346512
0
LINE
8
1
10
10.165367
20
18.346512
11
10.165367
21
23.346512
0
LINE
8
1
10
14.165367
20
18.346512
11
14.165367
21
23.346512
0
LINE
8
1
10
5.665367
20
17.846504
11
2.665367
21
17.846504
0
POLYLINE
8
1
66
1
70
1
0
VERTEX
8
1
10
17.887764
20
11.868729
0
VERTEX
8
1
10
17.891869
20
11.852287
0
VERTEX
8
1
10
17.891876
20
5.891785
0
VERTEX
8
1
10
17.889893
20
5.868721
0
VERTEX
8
1
10
13.891869
20
5.868668
0
VERTEX
8
1
10
13.891869
20
5.866402
0
VERTEX
8
1
10
5.892738
20
5.866402
0
VERTEX
8
1
10
5.891869
20
5.862556
0
VERTEX
8
1
10
5.891861
20
5.067177
0
VERTEX
8
1
10
5.892006
20
5.065559
0
VERTEX
8
1
10
5.981865
20
5.065598
0
VERTEX
8
1
10
5.981865
20
5.575195
0
VERTEX
8
1
10
5.982689
20
5.575432
0
VERTEX
8
1
10
6.743767
20
5.575432
0
VERTEX
8
1
10
6.743759
20
5.834770
0
VERTEX
8
1
10
6.744980
20
5.834969
0
VERTEX
8
1
10
7.304695
20
5.834961
0
VERTEX
8
1
10
7.304695
20
5.686592
0
VERTEX
8
1
10
7.304245
20
5.686417
0
VERTEX
8
1
10
7.125458
20
5.686417
0
VERTEX
8
1
10
7.124710
20
5.686340
0
VERTEX
8
1
10
7.124710
20
5.010040
42
0.194145
0
VERTEX
8
1
10
6.966194
20
4.937996
42
0.110856
0
VERTEX
8
1
10
6.794891
20
4.653732
42
0.088579
0
VERTEX
8
1
10
6.669731
20
3.851791
42
0.077901
0
VERTEX
8
1
10
6.779129
20
3.122917
42
0.100370
0
VERTEX
8
1
10
6.944016
20
2.817215
42
0.195101
0
VERTEX
8
1
10
7.117256
20
2.723694
0
VERTEX
8
1
10
7.124710
20
2.721405
0
VERTEX
8
1
10
7.124718
20
2.046379
0
VERTEX
8
1
10
7.304596
20
2.046379
0
VERTEX
8
1
10
7.304695
20
2.045715
0
VERTEX
8
1
10
7.304703
20
1.866920
0
VERTEX
8
1
10
7.304527
20
1.866402
0
VERTEX
8
1
10
6.744110
20
1.866394
0
VERTEX
8
1
10
6.743767
20
1.867256
0
VERTEX
8
1
10
6.743767
20
2.156319
0
VERTEX
8
1
10
6.743324
20
2.157364
0
VERTEX
8
1
10
5.981888
20
2.157364
0
VERTEX
8
1
10
5.981834
20
2.667244
0
VERTEX
8
1
10
5.891884
20
2.667244
0
VERTEX
8
1
10
5.891869
20
1.867897
0
VERTEX
8
1
10
5.890579
20
1.866402
0
VERTEX
8
1
10
5.132690
20
1.866394
0
VERTEX
8
1
10
5.132690
20
1.776443
0
VERTEX
8
1
10
5.642570
20
1.776398
0
VERTEX
8
1
10
5.642570
20
1.015030
0
VERTEX
8
1
10
5.643562
20
1.014519
0
VERTEX
8
1
10
5.932632
20
1.014519
0
VERTEX
8
1
10
5.933540
20
1.014214
0
VERTEX
8
1
10
5.933548
20
0.453781
0
VERTEX
8
1
10
5.933060
20
0.453590
0
VERTEX
8
1
10
5.754257
20
0.453590
0
VERTEX
8
1
10
5.753555
20
0.453674
0
VERTEX
8
1
10
5.753548
20
0.633553
0
VERTEX
8
1
10
5.078651
20
0.633568
0
VERTEX
8
1
10
5.076263
20
0.640190
42
0.172557
0
VERTEX
8
1
10
5.015091
20
0.780960
0
VERTEX
8
1
10
4.983498
20
0.813545
42
0.100695
0
VERTEX
8
1
10
4.678474
20
0.978645
0
VERTEX
8
1
10
4.611008
20
1.000053
0
VERTEX
8
1
10
4.539513
20
1.019424
42
0.119395
0
VERTEX
8
1
10
3.281319
20
1.007263
42
0.084324
0
VERTEX
8
1
10
2.936028
20
0.855804
42
0.156611
0
VERTEX
8
1
10
2.799278
20
0.689659
0
VERTEX
8
1
10
2.791756
20
0.653404
0
VERTEX
8
1
10
2.789955
20
0.633560
0
VERTEX
8
1
10
2.113617
20
0.633560
0
VERTEX
8
1
10
2.113518
20
0.632858
0
VERTEX
8
1
10
2.113518
20
0.454079
0
VERTEX
8
1
10
2.113327
20
0.453590
0
VERTEX
8
1
10
1.933540
20
0.453590
0
VERTEX
8
1
10
1.933540
20
1.013229
0
VERTEX
8
1
10
1.933739
20
1.014519
0
VERTEX
8
1
10
2.224495
20
1.014519
0
VERTEX
8
1
10
2.224503
20
1.775497
0
VERTEX
8
1
10
2.224724
20
1.776413
0
VERTEX
8
1
10
2.734329
20
1.776413
0
VERTEX
8
1
10
2.734383
20
1.866249
0
VERTEX
8
1
10
2.732819
20
1.866402
0
VERTEX
8
1
10
1.896141
20
1.866402
0
VERTEX
8
1
10
1.891869
20
1.866531
0
VERTEX
8
1
10
1.891876
20
2.635567
0
VERTEX
8
1
10
1.891472
20
2.635811
0
VERTEX
8
1
10
1.802101
20
2.635811
0
VERTEX
8
1
10
1.801888
20
2.635254
0
VERTEX
8
1
10
1.801888
20
2.125992
0
VERTEX
8
1
10
1.042252
20
2.125938
0
VERTEX
8
1
10
1.039986
20
2.125710
0
VERTEX
8
1
10
1.039986
20
1.866402
0
VERTEX
8
1
10
0.479057
20
1.866478
0
VERTEX
8
1
10
0.479057
20
2.014946
0
VERTEX
8
1
10
0.658768
20
2.014946
0
VERTEX
8
1
10
0.659027
20
2.015388
0
VERTEX
8
1
10
0.659027
20
2.692017
42
0.170540
0
VERTEX
8
1
10
0.794830
20
2.743881
0
VERTEX
8
1
10
0.827827
20
2.773338
42
0.105812
0
VERTEX
8
1
10
0.996208
20
3.067543
0
VERTEX
8
1
10
1.018303
20
3.133560
0
VERTEX
8
1
10
1.038391
20
3.203690
42
0.119464
0
VERTEX
8
1
10
1.039452
20
4.462227
42
0.080957
0
VERTEX
8
1
10
0.891693
20
4.817337
42
0.147613
0
VERTEX
8
1
10
0.727577
20
4.964943
0
VERTEX
8
1
10
0.691620
20
4.974945
0
VERTEX
8
1
10
0.659027
20
4.977875
0
VERTEX
8
1
10
0.659027
20
5.654457
0
VERTEX
8
1
10
0.658829
20
5.654991
0
VERTEX
8
1
10
0.479057
20
5.654991
0
VERTEX
8
1
10
0.479050
20
5.834831
0
VERTEX
8
1
10
0.479637
20
5.834969
0
VERTEX
8
1
10
1.039978
20
5.834969
0
VERTEX
8
1
10
1.039993
20
5.544350
0
VERTEX
8
1
10
1.041901
20
5.544006
0
VERTEX
8
1
10
1.801888
20
5.543968
0
VERTEX
8
1
10
1.801888
20
5.034821
0
VERTEX
8
1
10
1.802055
20
5.034126
0
VERTEX
8
1
10
1.891418
20
5.034134
0
VERTEX
8
1
10
1.891869
20
5.034271
0
VERTEX
8
1
10
1.891861
20
11.852959
0
VERTEX
8
1
10
1.897346
20
11.866402
0
VERTEX
8
1
10
13.891869
20
11.866432
0
VERTEX
8
1
10
13.891869
20
11.868721
0
SEQEND
0
POLYLINE
8
1
66
1
70
1
0
VERTEX
8
1
10
1.085190
20
4.932579
0
VERTEX
8
1
10
1.244995
20
5.025017
0
VERTEX
8
1
10
1.403709
20
4.898727
0
VERTEX
8
1
10
1.397377
20
5.098091
0
VERTEX
8
1
10
1.521034
20
5.209152
0
VERTEX
8
1
10
1.332916
20
5.232552
0
VERTEX
8
1
10
1.214447
20
5.412659
0
VERTEX
8
1
10
1.165649
20
5.271721
0
VERTEX
8
1
10
0.958878
20
5.274742
0
VERTEX
8
1
10
1.120956
20
5.125916
0
SEQEND
0
POLYLINE
8
1
66
1
70
1
0
VERTEX
8
1
10
1.292915
20
2.244148
0
VERTEX
8
1
10
1.292915
20
4.383034
0
VERTEX
8
1
10
1.181801
20
4.383034
0
VERTEX
8
1
10
1.181801
20
2.244148
0
SEQEND
0
POLYLINE
8
1
66
1
70
1
0
VERTEX
8
1
10
1.247650
20
4.686516
0
VERTEX
8
1
10
1.375900
20
4.568756
0
VERTEX
8
1
10
1.347595
20
4.415779
0
VERTEX
8
1
10
1.474045
20
4.488907
0
VERTEX
8
1
10
1.599632
20
4.388977
0
VERTEX
8
1
10
1.594620
20
4.546730
0
VERTEX
8
1
10
1.692474
20
4.634621
0
VERTEX
8
1
10
1.543617
20
4.653137
0
VERTEX
8
1
10
1.449875
20
4.795647
0
VERTEX
8
1
10
1.411263
20
4.684113
0
SEQEND
0
POLYLINE
8
1
66
1
70
1
0
VERTEX
8
1
10
1.487358
20
2.244148
0
VERTEX
8
1
10
1.487358
20
4.151550
0
VERTEX
8
1
10
1.376244
20
4.151550
0
VERTEX
8
1
10
1.376244
20
2.244148
0
SEQEND
0
POLYLINE
8
1
66
1
70
1
0
VERTEX
8
1
10
1.681801
20
2.244148
0
VERTEX
8
1
10
1.681801
20
3.913116
0
VERTEX
8
1
10
1.570694
20
3.913116
0
VERTEX
8
1
10
1.570694
20
2.244148
0
SEQEND
0
POLYLINE
8
1
66
1
70
1
0
VERTEX
8
1
10
1.694817
20
4.053444
0
VERTEX
8
1
10
1.692261
20
4.133728
0
VERTEX
8
1
10
1.742065
20
4.178459
0
VERTEX
8
1
10
1.666306
20
4.187881
0
VERTEX
8
1
10
1.618599
20
4.260406
0
VERTEX
8
1
10
1.598946
20
4.203644
0
VERTEX
8
1
10
1.515671
20
4.204880
0
VERTEX
8
1
10
1.580948
20
4.144943
0
VERTEX
8
1
10
1.566544
20
4.067078
0
VERTEX
8
1
10
1.630890
20
4.104309
0
SEQEND
0
POLYLINE
8
1
66
1
70
1
0
VERTEX
8
1
10
1.891869
20
2.815788
0
VERTEX
8
1
10
1.891869
20
4.854141
0
VERTEX
8
1
10
1.801888
20
4.854141
0
VERTEX
8
1
10
1.801888
20
2.815788
0
SEQEND
0
POLYLINE
8
1
66
1
70
1
0
VERTEX
8
1
10
6.698563
20
2.768791
0
VERTEX
8
1
10
6.538757
20
2.676353
0
VERTEX
8
1
10
6.380035
20
2.802643
0
VERTEX
8
1
10
6.386368
20
2.603279
0
VERTEX
8
1
10
6.262711
20
2.492218
0
VERTEX
8
1
10
6.450821
20
2.468819
0
VERTEX
8
1
10
6.569298
20
2.288712
0
VERTEX
8
1
10
6.618103
20
2.429649
0
VERTEX
8
1
10
6.824860
20
2.426628
0
VERTEX
8
1
10
6.662796
20
2.575455
0
SEQEND
0
POLYLINE
8
1
66
1
70
1
0
VERTEX
8
1
10
6.490829
20
5.457222
0
VERTEX
8
1
10
6.490829
20
3.318336
0
VERTEX
8
1
10
6.601944
20
3.318336
0
VERTEX
8
1
10
6.601944
20
5.457222
0
SEQEND
0
POLYLINE
8
1
66
1
70
1
0
VERTEX
8
1
10
6.536095
20
3.014839
0
VERTEX
8
1
10
6.407852
20
3.132614
0
VERTEX
8
1
10
6.436150
20
3.285591
0
VERTEX
8
1
10
6.309708
20
3.212463
0
VERTEX
8
1
10
6.184105
20
3.312393
0
VERTEX
8
1
10
6.189117
20
3.154640
0
VERTEX
8
1
10
6.091263
20
3.066750
0
VERTEX
8
1
10
6.240128
20
3.048233
0
VERTEX
8
1
10
6.333870
20
2.905724
0
VERTEX
8
1
10
6.372482
20
3.017258
0
SEQEND
0
POLYLINE
8
1
66
1
70
1
0
VERTEX
8
1
10
6.296387
20
5.457222
0
VERTEX
8
1
10
6.296387
20
3.549820
0
VERTEX
8
1
10
6.407494
20
3.549820
0
VERTEX
8
1
10
6.407494
20
5.457222
0
SEQEND
0
POLYLINE
8
1
66
1
70
1
0
VERTEX
8
1
10
6.101944
20
5.457222
0
VERTEX
8
1
10
6.101944
20
3.788254
0
VERTEX
8
1
10
6.213051
20
3.788254
0
VERTEX
8
1
10
6.213051
20
5.457222
0
SEQEND
0
POLYLINE
8
1
66
1
70
1
0
VERTEX
8
1
10
6.088936
20
3.647926
0
VERTEX
8
1
10
6.091484
20
3.567642
0
VERTEX
8
1
10
6.041679
20
3.522911
0
VERTEX
8
1
10
6.117447
20
3.513489
0
VERTEX
8
1
10
6.165154
20
3.440964
0
VERTEX
8
1
10
6.184807
20
3.497711
0
VERTEX
8
1
10
6.268082
20
3.496490
0
VERTEX
8
1
10
6.202805
20
3.556427
0
VERTEX
8
1
10
6.217209
20
3.634293
0
VERTEX
8
1
10
6.152847
20
3.597061
0
SEQEND
0
POLYLINE
8
1
66
1
70
1
0
VERTEX
8
1
10
15.950462
20
6.398827
42
0.941224
0
VERTEX
8
1
10
15.947357
20
6.461670
42
-0.194264
0
VERTEX
8
1
10
15.828690
20
6.490875
0
VERTEX
8
1
10
15.821671
20
6.499008
42
-0.255907
0
VERTEX
8
1
10
15.817749
20
6.621170
42
-0.192663
0
VERTEX
8
1
10
15.869598
20
6.649727
42
0.865720
0
VERTEX
8
1
10
15.844933
20
6.707268
42
0.348654
0
VERTEX
8
1
10
15.742409
20
6.590019
0
VERTEX
8
1
10
15.741737
20
6.557739
42
0.401409
0
VERTEX
8
1
10
15.876099
20
6.402412
42
0.058267
0
SEQEND
0
POLYLINE
8
1
66
1
70
1
0
VERTEX
8
1
10
15.908455
20
9.314827
42
0.076685
0
VERTEX
8
1
10
16.350662
20
9.632332
0
VERTEX
8
1
10
16.393829
20
9.673508
42
0.045978
0
VERTEX
8
1
10
17.050583
20
10.466988
0
VERTEX
8
1
10
17.057945
20
10.481178
0
VERTEX
8
1
10
17.059135
20
10.488350
0
VERTEX
8
1
10
17.053871
20
10.488121
0
VERTEX
8
1
10
17.042450
20
10.480537
42
0.036346
0
VERTEX
8
1
10
16.784744
20
10.202232
42
-0.024622
0
VERTEX
8
1
10
16.304352
20
9.668541
0
VERTEX
8
1
10
16.267403
20
9.633911
42
-0.075594
0
VERTEX
8
1
10
15.880455
20
9.356857
0
VERTEX
8
1
10
15.868935
20
9.351234
42
-0.062489
0
VERTEX
8
1
10
15.859802
20
9.696609
0
VERTEX
8
1
10
15.864120
20
9.757698
42
0.007966
0
VERTEX
8
1
10
15.914230
20
10.286240
42
0.077737
0
VERTEX
8
1
10
15.882668
20
10.773239
42
0.112514
0
VERTEX
8
1
10
15.765488
20
11.022568
0
VERTEX
8
1
10
15.764252
20
11.023369
0
VERTEX
8
1
10
15.765984
20
11.018143
42
-0.125782
0
VERTEX
8
1
10
15.885704
20
10.573944
42
-0.042437
0
VERTEX
8
1
10
15.854111
20
10.074478
0
VERTEX
8
1
10
15.836655
20
9.936401
42
0.050173
0
VERTEX
8
1
10
15.806473
20
9.412193
42
0.027897
0
VERTEX
8
1
10
15.825310
20
9.277954
0
SEQEND
0
POLYLINE
8
1
66
1
70
1
0
VERTEX
8
1
10
15.418373
20
8.218483
0
VERTEX
8
1
10
15.417862
20
8.261971
0
VERTEX
8
1
10
15.418030
20
8.300156
0
VERTEX
8
1
10
15.419479
20
8.338318
42
-0.198046
0
VERTEX
8
1
10
15.614464
20
8.801201
42
0.038469
0
VERTEX
8
1
10
15.689682
20
8.879387
42
0.932256
0
VERTEX
8
1
10
15.677299
20
8.894470
0
VERTEX
8
1
10
15.669220
20
8.893379
42
0.176110
0
VERTEX
8
1
10
15.502541
20
8.768723
42
0.192655
0
VERTEX
8
1
10
15.388588
20
8.289627
42
0.080378
0
VERTEX
8
1
10
15.414070
20
8.174881
0
VERTEX
8
1
10
15.415108
20
8.174133
0
VERTEX
8
1
10
15.416008
20
8.174362
42
0.134432
0
SEQEND
0
POLYLINE
8
1
66
1
70
1
0
VERTEX
8
1
10
14.466995
20
8.471695
42
-0.040486
0
VERTEX
8
1
10
15.148582
20
8.820045
42
-0.040329
0
VERTEX
8
1
10
15.607651
20
8.950630
0
VERTEX
8
1
10
15.610359
20
8.951668
42
1.041973
0
VERTEX
8
1
10
15.611763
20
8.971191
42
0.125863
0
VERTEX
8
1
10
15.492661
20
8.994606
42
0.099138
0
VERTEX
8
1
10
15.149864
20
8.916153
42
0.077105
0
VERTEX
8
1
10
14.168213
20
8.309059
42
0.146894
0
VERTEX
8
1
10
14.147522
20
8.283775
0
VERTEX
8
1
10
14.148941
20
8.283417
42
0.066741
0
VERTEX
8
1
10
14.249512
20
8.339104
42
-0.003067
0
SEQEND
0
POLYLINE
8
1
66
1
70
1
0
VERTEX
8
1
10
15.374123
20
8.678436
42
1.383322
0
VERTEX
8
1
10
15.373352
20
8.681816
0
VERTEX
8
1
10
15.367424
20
8.680267
0
VERTEX
8
1
10
15.361572
20
8.678436
42
0.151959
0
VERTEX
8
1
10
14.776390
20
8.176102
42
0.151804
0
VERTEX
8
1
10
14.737373
20
8.044220
42
0.817936
0
VERTEX
8
1
10
14.758736
20
8.041122
42
0.049169
0
VERTEX
8
1
10
14.817131
20
8.122643
42
-0.122425
0
VERTEX
8
1
10
15.312607
20
8.635323
0
VERTEX
8
1
10
15.359184
20
8.666656
0
SEQEND
0
POLYLINE
8
1
66
1
70
1
0
VERTEX
8
1
10
14.642822
20
8.869347
42
-0.059337
0
VERTEX
8
1
10
14.948723
20
8.916245
42
0.126988
0
VERTEX
8
1
10
15.018059
20
8.932747
42
0.557330
0
VERTEX
8
1
10
15.012306
20
8.956429
0
VERTEX
8
1
10
15.006065
20
8.961121
42
0.163470
0
VERTEX
8
1
10
14.835655
20
8.987000
42
0.075307
0
VERTEX
8
1
10
14.508217
20
8.890678
42
0.027690
0
VERTEX
8
1
10
14.146858
20
8.707161
0
VERTEX
8
1
10
14.143524
20
8.703026
0
VERTEX
8
1
10
14.146004
20
8.701195
42
0.065076
0
VERTEX
8
1
10
14.294403
20
8.746201
42
-0.023790
0
SEQEND
0
POLYLINE
8
1
66
1
70
1
0
VERTEX
8
1
10
14.242439
20
8.976059
42
-0.103521
0
VERTEX
8
1
10
14.784416
20
9.088486
42
-0.048279
0
VERTEX
8
1
10
15.328804
20
9.035507
0
VERTEX
8
1
10
15.328674
20
9.036270
0
VERTEX
8
1
10
15.326294
20
9.037621
0
VERTEX
8
1
10
15.315834
20
9.041664
42
0.112521
0
VERTEX
8
1
10
14.478706
20
9.096016
42
0.126591
0
VERTEX
8
1
10
14.233894
20
8.999229
42
0.323804
0
VERTEX
8
1
10
14.216446
20
8.971260
42
0.154349
0
SEQEND
0
POLYLINE
8
1
66
1
70
1
0
VERTEX
8
1
10
15.744812
20
8.999832
42
0.408863
0
VERTEX
8
1
10
15.766602
20
9.001968
42
0.114498
0
VERTEX
8
1
10
15.699173
20
9.062553
42
0.042211
0
VERTEX
8
1
10
15.326469
20
9.271873
42
0.025437
0
VERTEX
8
1
10
14.062851
20
9.797623
42
0.228555
0
VERTEX
8
1
10
14.049049
20
9.799110
42
0.033860
0
VERTEX
8
1
10
14.231056
20
9.712410
0
VERTEX
8
1
10
14.317299
20
9.673790
42
-0.020211
0
VERTEX
8
1
10
15.600494
20
9.062805
42
0.033266
0
SEQEND
0
POLYLINE
8
1
66
1
70
1
0
VERTEX
8
1
10
14.873978
20
9.328041
42
0.180682
0
VERTEX
8
1
10
14.102287
20
9.431976
42
0.157462
0
VERTEX
8
1
10
14.057327
20
9.411568
0
VERTEX
8
1
10
14.061775
20
9.410042
42
-0.012145
0
VERTEX
8
1
10
14.325851
20
9.435570
42
-0.126831
0
VERTEX
8
1
10
14.910622
20
9.304039
42
0.044156
0
SEQEND
0
POLYLINE
8
1
66
1
70
1
0
VERTEX
8
1
10
14.618416
20
9.761360
42
0.015677
0
VERTEX
8
1
10
15.068764
20
9.521080
42
-0.059481
0
VERTEX
8
1
10
15.722504
20
9.092484
42
0.208325
0
VERTEX
8
1
10
15.757057
20
9.073715
42
0.233667
0
VERTEX
8
1
10
15.745743
20
9.097298
0
VERTEX
8
1
10
15.737076
20
9.109131
42
0.080935
0
VERTEX
8
1
10
15.464615
20
9.338776
42
0.034608
0
VERTEX
8
1
10
14.888741
20
9.642967
42
0.008332
0
VERTEX
8
1
10
14.562752
20
9.797638
42
0.035550
0
SEQEND
0
POLYLINE
8
1
66
1
70
1
0
VERTEX
8
1
10
16.466637
20
9.558311
0
VERTEX
8
1
10
16.466675
20
9.557281
0
VERTEX
8
1
10
16.469429
20
9.558937
42
-0.076432
0
VERTEX
8
1
10
16.758942
20
9.848068
42
-0.210926
0
VERTEX
8
1
10
17.455475
20
9.983437
42
-0.004656
0
VERTEX
8
1
10
17.710526
20
9.920532
42
1.054199
0
VERTEX
8
1
10
17.714478
20
9.930206
0
VERTEX
8
1
10
17.709358
20
9.935501
0
VERTEX
8
1
10
17.701920
20
9.941704
42
0.126139
0
VERTEX
8
1
10
17.379616
20
10.047806
42
0.259317
0
VERTEX
8
1
10
16.572830
20
9.712914
42
0.066155
0
SEQEND
0
POLYLINE
8
1
66
1
70
1
0
VERTEX
8
1
10
17.302803
20
10.597672
0
VERTEX
8
1
10
17.326286
20
10.526375
0
VERTEX
8
1
10
17.267044
20
10.470314
0
VERTEX
8
1
10
17.358055
20
10.466370
0
VERTEX
8
1
10
17.405640
20
10.403435
0
VERTEX
8
1
10
17.438408
20
10.472282
0
VERTEX
8
1
10
17.527039
20
10.489464
0
VERTEX
8
1
10
17.456268
20
10.535957
0
VERTEX
8
1
10
17.463478
20
10.609505
0
VERTEX
8
1
10
17.386978
20
10.569405
0
SEQEND
0
POLYLINE
8
1
66
1
70
1
0
VERTEX
8
1
10
17.405869
20
11.364166
0
VERTEX
8
1
10
17.429344
20
11.292862
0
VERTEX
8
1
10
17.370117
20
11.236809
0
VERTEX
8
1
10
17.461128
20
11.232857
0
VERTEX
8
1
10
17.508705
20
11.169930
0
VERTEX
8
1
10
17.541466
20
11.238777
0
VERTEX
8
1
10
17.630096
20
11.255959
0
VERTEX
8
1
10
17.559341
20
11.302452
0
VERTEX
8
1
10
17.566544
20
11.375992
0
VERTEX
8
1
10
17.490051
20
11.335899
0
SEQEND
0
POLYLINE
8
1
66
1
70
1
0
VERTEX
8
1
10
16.976135
20
10.600105
42
0.079954
0
VERTEX
8
1
10
16.944565
20
10.551369
42
0.078023
0
VERTEX
8
1
10
16.995872
20
10.592804
42
-0.097788
0
VERTEX
8
1
10
17.395226
20
10.853882
42
-0.062277
0
VERTEX
8
1
10
17.689163
20
10.908752
42
0.313385
0
VERTEX
8
1
10
17.715370
20
10.920837
0
VERTEX
8
1
10
17.712822
20
10.925758
0
VERTEX
8
1
10
17.706238
20
10.931091
42
0.169718
0
VERTEX
8
1
10
17.490570
20
10.939751
42
0.155448
0
VERTEX
8
1
10
16.997993
20
10.626213
0
SEQEND
0
POLYLINE
8
1
66
1
70
1
0
VERTEX
8
1
10
16.842827
20
11.446175
0
VERTEX
8
1
10
16.866302
20
11.374870
0
VERTEX
8
1
10
16.807076
20
11.318825
0
VERTEX
8
1
10
16.898087
20
11.314865
0
VERTEX
8
1
10
16.945663
20
11.251945
0
VERTEX
8
1
10
16.978424
20
11.320778
0
VERTEX
8
1
10
17.067055
20
11.337959
0
VERTEX
8
1
10
16.996292
20
11.384460
0
VERTEX
8
1
10
17.003494
20
11.458000
0
VERTEX
8
1
10
16.927010
20
11.417908
0
SEQEND
0
POLYLINE
8
1
66
1
70
1
0
VERTEX
8
1
10
16.274269
20
9.982697
42
-0.045226
0
VERTEX
8
1
10
15.970711
20
9.577339
42
0.115652
0
VERTEX
8
1
10
15.930000
20
9.513863
0
VERTEX
8
1
10
15.932404
20
9.509666
0
VERTEX
8
1
10
15.935287
20
9.508232
42
0.151346
0
VERTEX
8
1
10
16.020813
20
9.540253
42
0.104018
0
VERTEX
8
1
10
16.239250
20
9.752106
42
0.046718
0
VERTEX
8
1
10
16.485649
20
10.190773
0
VERTEX
8
1
10
16.575676
20
10.382629
42
-0.026526
0
VERTEX
8
1
10
16.793465
20
10.793289
0
VERTEX
8
1
10
16.794731
20
10.798355
0
VERTEX
8
1
10
16.794418
20
10.799210
0
VERTEX
8
1
10
16.793663
20
10.799538
0
VERTEX
8
1
10
16.792488
20
10.799332
42
0.074610
0
VERTEX
8
1
10
16.731781
20
10.739449
42
0.049073
0
VERTEX
8
1
10
16.483528
20
10.356453
42
-0.013073
0
SEQEND
0
POLYLINE
8
1
66
1
70
1
0
VERTEX
8
1
10
16.115044
20
11.677155
42
0.582629
0
VERTEX
8
1
10
16.083038
20
11.676727
42
0.155180
0
VERTEX
8
1
10
16.098221
20
11.591415
42
-0.055196
0
VERTEX
8
1
10
16.233887
20
11.190628
42
1.199428
0
VERTEX
8
1
10
16.240273
20
11.194839
0
VERTEX
8
1
10
16.241417
20
11.199135
42
0.095143
0
VERTEX
8
1
10
16.228203
20
11.391068
42
0.055205
0
VERTEX
8
1
10
16.148834
20
11.633514
42
0.091077
0
SEQEND
0
POLYLINE
8
1
66
1
70
1
0
VERTEX
8
1
10
16.114052
20
10.282730
42
0.136970
0
VERTEX
8
1
10
16.061424
20
11.081200
42
0.127678
0
VERTEX
8
1
10
15.948540
20
11.251503
42
0.374262
0
VERTEX
8
1
10
15.932533
20
11.253311
42
0.151293
0
VERTEX
8
1
10
15.947334
20
11.197838
0
VERTEX
8
1
10
15.964363
20
11.155365
42
-0.157287
0
VERTEX
8
1
10
16.058815
20
10.171753
42
-0.010544
0
VERTEX
8
1
10
16.032524
20
10.077530
42
2.106602
0
VERTEX
8
1
10
16.037148
20
10.075813
42
0.086265
0
VERTEX
8
1
10
16.108421
20
10.258842
0
SEQEND
0
POLYLINE
8
1
66
1
70
1
0
VERTEX
8
1
10
15.739395
20
11.598312
0
VERTEX
8
1
10
15.762871
20
11.527023
0
VERTEX
8
1
10
15.703636
20
11.470963
0
VERTEX
8
1
10
15.794647
20
11.467018
0
VERTEX
8
1
10
15.842232
20
11.404083
0
VERTEX
8
1
10
15.874992
20
11.472931
0
VERTEX
8
1
10
15.963623
20
11.490120
0
VERTEX
8
1
10
15.892860
20
11.536598
0
VERTEX
8
1
10
15.900063
20
11.610138
0
VERTEX
8
1
10
15.823570
20
11.570045
0
SEQEND
0
POLYLINE
8
1
66
1
70
1
0
VERTEX
8
1
10
15.522003
20
10.583702
0
VERTEX
8
1
10
15.545486
20
10.512398
0
VERTEX
8
1
10
15.486252
20
10.456345
0
VERTEX
8
1
10
15.577263
20
10.452400
0
VERTEX
8
1
10
15.624840
20
10.389465
0
VERTEX
8
1
10
15.657608
20
10.458313
0
VERTEX
8
1
10
15.746231
20
10.475494
0
VERTEX
8
1
10
15.675476
20
10.521988
0
VERTEX
8
1
10
15.682678
20
10.595528
0
VERTEX
8
1
10
15.606186
20
10.555435
0
SEQEND
0
POLYLINE
8
1
66
1
70
1
0
VERTEX
8
1
10
14.689186
20
10.948357
0
VERTEX
8
1
10
14.605003
20
10.976608
0
VERTEX
8
1
10
14.628494
20
10.905319
0
VERTEX
8
1
10
14.569252
20
10.849258
0
VERTEX
8
1
10
14.660263
20
10.845314
0
VERTEX
8
1
10
14.707840
20
10.782379
0
VERTEX
8
1
10
14.740616
20
10.851227
0
VERTEX
8
1
10
14.829239
20
10.868416
0
VERTEX
8
1
10
14.758476
20
10.914909
0
VERTEX
8
1
10
14.765686
20
10.988449
0
SEQEND
0
POLYLINE
8
1
66
1
70
1
0
VERTEX
8
1
10
14.435921
20
11.259399
42
-0.045543
0
VERTEX
8
1
10
14.574135
20
11.128098
0
VERTEX
8
1
10
14.576691
20
11.127045
0
VERTEX
8
1
10
14.578026
20
11.128082
42
0.131556
0
VERTEX
8
1
10
14.524002
20
11.227943
42
0.113066
0
VERTEX
8
1
10
14.287682
20
11.418358
42
0.176965
0
VERTEX
8
1
10
14.223740
20
11.423599
42
0.510656
0
VERTEX
8
1
10
14.228516
20
11.394043
42
0.082577
0
VERTEX
8
1
10
14.332169
20
11.327980
42
-0.030359
0
SEQEND
0
POLYLINE
8
1
66
1
70
1
0
VERTEX
8
1
10
14.376640
20
10.784439
0
VERTEX
8
1
10
14.449310
20
10.722588
42
-0.039901
0
VERTEX
8
1
10
15.128952
20
10.062790
42
-0.054415
0
VERTEX
8
1
10
15.551826
20
9.439919
42
0.046907
0
VERTEX
8
1
10
15.672073
20
9.247200
42
0.431710
0
VERTEX
8
1
10
15.700119
20
9.235657
42
0.180133
0
VERTEX
8
1
10
15.702858
20
9.288040
42
0.058626
0
VERTEX
8
1
10
15.650986
20
9.461189
42
0.072615
0
VERTEX
8
1
10
15.493881
20
10.207565
42
0.064437
0
VERTEX
8
1
10
14.968727
20
11.239326
42
0.066622
0
VERTEX
8
1
10
14.778877
20
11.452110
42
0.179929
0
VERTEX
8
1
10
14.734482
20
11.472626
0
VERTEX
8
1
10
14.730881
20
11.469269
0
VERTEX
8
1
10
14.729378
20
11.463455
42
0.094766
0
VERTEX
8
1
10
14.778770
20
11.345955
42
0.015524
0
VERTEX
8
1
10
15.012390
20
10.967484
0
VERTEX
8
1
10
15.065514
20
10.880547
0
VERTEX
8
1
10
15.117188
20
10.792740
0
VERTEX
8
1
10
15.167397
20
10.704086
42
-0.074450
0
VERTEX
8
1
10
15.614365
20
9.543022
0
VERTEX
8
1
10
15.601578
20
9.568726
0
VERTEX
8
1
10
15.588264
20
9.594162
42
0.075101
0
VERTEX
8
1
10
15.018761
20
10.305916
42
0.043880
0
VERTEX
8
1
10
14.156944
20
10.987251
0
VERTEX
8
1
10
14.146645
20
10.992287
0
VERTEX
8
1
10
14.142044
20
10.993004
0
VERTEX
8
1
10
14.143242
20
10.989220
0
VERTEX
8
1
10
14.150162
20
10.981171
42
0.015211
0
SEQEND
0
POLYLINE
8
1
66
1
70
1
0
VERTEX
8
1
10
14.213089
20
10.169991
42
-0.114270
0
VERTEX
8
1
10
15.028839
20
9.801628
42
0.046655
0
VERTEX
8
1
10
15.170021
20
9.710968
42
0.674888
0
VERTEX
8
1
10
15.186867
20
9.715866
42
0.122794
0
VERTEX
8
1
10
15.113815
20
9.806297
0
VERTEX
8
1
10
15.084068
20
9.832611
42
0.139776
0
VERTEX
8
1
10
14.179268
20
10.198395
42
0.052242
0
VERTEX
8
1
10
14.034477
20
10.200394
0
VERTEX
8
1
10
14.031303
20
10.199158
0
VERTEX
8
1
10
14.033302
20
10.197556
42
-0.001995
0
SEQEND
0
POLYLINE
8
1
66
1
70
1
0
VERTEX
8
1
10
11.113998
20
10.824257
42
-0.042921
0
VERTEX
8
1
10
13.486404
20
11.305832
42
0.140100
0
VERTEX
8
1
10
13.448944
20
11.580231
0
VERTEX
8
1
10
13.447411
20
11.580147
42
0.038096
0
VERTEX
8
1
10
11.060043
20
11.101768
42
0.025946
0
VERTEX
8
1
10
10.204231
20
10.808327
42
0.204810
0
VERTEX
8
1
10
10.183441
20
10.732658
42
0.071307
0
VERTEX
8
1
10
10.222923
20
10.534004
42
-0.019075
0
SEQEND
0
POLYLINE
8
1
66
1
70
1
0
VERTEX
8
1
10
13.473160
20
8.587242
0
VERTEX
8
1
10
13.394485
20
8.755089
0
VERTEX
8
1
10
13.534073
20
8.913879
0
VERTEX
8
1
10
13.335770
20
8.911896
0
VERTEX
8
1
10
13.235725
20
9.040955
0
VERTEX
8
1
10
13.195595
20
8.848595
0
VERTEX
8
1
10
13.004837
20
8.731514
0
VERTEX
8
1
10
13.141663
20
8.677750
0
VERTEX
8
1
10
13.120659
20
8.468155
0
VERTEX
8
1
10
13.281479
20
8.628937
0
SEQEND
0
POLYLINE
8
1
66
1
70
1
0
VERTEX
8
1
10
13.167969
20
7.993103
0
VERTEX
8
1
10
13.074921
20
8.160851
0
VERTEX
8
1
10
13.202156
20
8.327774
0
VERTEX
8
1
10
13.001198
20
8.320869
0
VERTEX
8
1
10
12.890495
20
8.449211
0
VERTEX
8
1
10
12.867149
20
8.253342
0
VERTEX
8
1
10
12.685196
20
8.128433
0
VERTEX
8
1
10
12.827858
20
8.077057
0
VERTEX
8
1
10
12.824821
20
7.861862
0
VERTEX
8
1
10
12.973389
20
8.030563
0
SEQEND
0
POLYLINE
8
1
66
1
70
1
0
VERTEX
8
1
10
12.767960
20
7.247986
0
VERTEX
8
1
10
12.681381
20
7.420738
0
VERTEX
8
1
10
12.815323
20
7.591858
0
VERTEX
8
1
10
12.615036
20
7.583321
0
VERTEX
8
1
10
12.509613
20
7.713913
0
VERTEX
8
1
10
12.477829
20
7.512764
0
VERTEX
8
1
10
12.290062
20
7.383522
0
VERTEX
8
1
10
12.430984
20
7.331627
0
VERTEX
8
1
10
12.418938
20
7.113167
0
VERTEX
8
1
10
12.573212
20
7.285362
0
SEQEND
0
POLYLINE
8
1
66
1
70
1
0
VERTEX
8
1
10
12.012825
20
7.064445
0
VERTEX
8
1
10
11.925735
20
7.244499
0
VERTEX
8
1
10
12.060471
20
7.423843
0
VERTEX
8
1
10
11.858910
20
7.414001
0
VERTEX
8
1
10
11.753792
20
7.548683
0
VERTEX
8
1
10
11.722000
20
7.339973
0
VERTEX
8
1
10
11.532707
20
7.203903
0
VERTEX
8
1
10
11.675041
20
7.150139
0
VERTEX
8
1
10
11.662994
20
6.923721
0
VERTEX
8
1
10
11.816986
20
7.102692
0
SEQEND
0
POLYLINE
8
1
66
1
70
1
0
VERTEX
8
1
10
11.278488
20
6.820602
0
VERTEX
8
1
10
11.190933
20
7.007584
0
VERTEX
8
1
10
11.326324
20
7.195251
0
VERTEX
8
1
10
11.123695
20
7.183556
0
VERTEX
8
1
10
11.018814
20
7.321968
0
VERTEX
8
1
10
10.987045
20
7.105728
0
VERTEX
8
1
10
10.796371
20
6.962540
0
VERTEX
8
1
10
10.939934
20
6.907326
0
VERTEX
8
1
10
10.927925
20
6.673317
0
VERTEX
8
1
10
11.081573
20
6.859200
0
SEQEND
0
POLYLINE
8
1
66
1
70
1
0
VERTEX
8
1
10
10.769531
20
7.297127
0
VERTEX
8
1
10
10.674545
20
7.487213
0
VERTEX
8
1
10
10.803741
20
7.681343
0
VERTEX
8
1
10
10.599503
20
7.667809
0
VERTEX
8
1
10
10.489510
20
7.807976
0
VERTEX
8
1
10
10.466179
20
7.587471
0
VERTEX
8
1
10
10.279694
20
7.438911
0
VERTEX
8
1
10
10.426575
20
7.383400
0
VERTEX
8
1
10
10.423553
20
7.143570
0
VERTEX
8
1
10
10.570908
20
7.335091
0
SEQEND
0
POLYLINE
8
1
66
1
70
1
0
VERTEX
8
1
10
12.920441
20
10.481461
0
VERTEX
8
1
10
12.827400
20
10.649185
0
VERTEX
8
1
10
12.954643
20
10.816139
0
VERTEX
8
1
10
12.753677
20
10.809219
0
VERTEX
8
1
10
12.642975
20
10.937569
0
VERTEX
8
1
10
12.619644
20
10.741714
0
VERTEX
8
1
10
12.437675
20
10.616798
0
VERTEX
8
1
10
12.580338
20
10.565422
0
VERTEX
8
1
10
12.577301
20
10.350212
0
VERTEX
8
1
10
12.725861
20
10.518913
0
SEQEND
0
POLYLINE
8
1
66
1
70
1
0
VERTEX
8
1
10
13.079185
20
9.203697
0
VERTEX
8
1
10
12.993408
20
9.374245
0
VERTEX
8
1
10
13.127510
20
9.537071
0
VERTEX
8
1
10
12.926712
20
9.536079
0
VERTEX
8
1
10
12.821487
20
9.667549
0
VERTEX
8
1
10
12.789871
20
9.472664
0
VERTEX
8
1
10
12.602966
20
9.353493
0
VERTEX
8
1
10
12.743225
20
9.297791
0
VERTEX
8
1
10
12.731163
20
9.082916
0
VERTEX
8
1
10
12.886360
20
9.246941
0
SEQEND
0
POLYLINE
8
1
66
1
70
1
0
VERTEX
8
1
10
12.648598
20
8.469566
0
VERTEX
8
1
10
12.569481
20
8.645622
0
VERTEX
8
1
10
12.710190
20
8.812881
0
VERTEX
8
1
10
12.510124
20
8.810493
0
VERTEX
8
1
10
12.410477
20
8.944450
0
VERTEX
8
1
10
12.370430
20
8.744171
0
VERTEX
8
1
10
12.177750
20
8.620598
0
VERTEX
8
1
10
12.316254
20
8.563995
0
VERTEX
8
1
10
12.295250
20
8.345558
0
VERTEX
8
1
10
12.455887
20
8.513161
0
SEQEND
0
POLYLINE
8
1
66
1
70
1
0
VERTEX
8
1
10
11.888481
20
8.309723
0
VERTEX
8
1
10
11.808945
20
8.493248
0
VERTEX
8
1
10
11.950577
20
8.668594
0
VERTEX
8
1
10
11.749092
20
8.665382
0
VERTEX
8
1
10
11.649757
20
8.803635
0
VERTEX
8
1
10
11.609787
20
8.595886
0
VERTEX
8
1
10
11.415482
20
8.465904
0
VERTEX
8
1
10
11.555367
20
8.407028
0
VERTEX
8
1
10
11.534393
20
8.180450
0
VERTEX
8
1
10
11.694824
20
8.354660
0
SEQEND
0
POLYLINE
8
1
66
1
70
1
0
VERTEX
8
1
10
11.147118
20
8.090256
0
VERTEX
8
1
10
11.067207
20
8.280952
0
VERTEX
8
1
10
11.209618
20
8.464508
0
VERTEX
8
1
10
11.006943
20
8.459923
0
VERTEX
8
1
10
10.907860
20
8.602150
0
VERTEX
8
1
10
10.867935
20
8.386925
0
VERTEX
8
1
10
10.672195
20
8.250206
0
VERTEX
8
1
10
10.813316
20
8.189484
0
VERTEX
8
1
10
10.792374
20
7.955086
0
VERTEX
8
1
10
10.952515
20
8.136032
0
SEQEND
0
POLYLINE
8
1
66
1
70
1
0
VERTEX
8
1
10
11.119614
20
8.751511
0
VERTEX
8
1
10
11.274185
20
8.929947
0
VERTEX
8
1
10
11.469368
20
8.884583
0
VERTEX
8
1
10
11.382523
20
9.070747
0
VERTEX
8
1
10
11.518295
20
9.251038
0
VERTEX
8
1
10
11.314774
20
9.247452
0
VERTEX
8
1
10
11.210190
20
9.387642
0
VERTEX
8
1
10
11.178642
20
9.176720
0
VERTEX
8
1
10
10.988396
20
9.043274
0
VERTEX
8
1
10
11.131638
20
8.983345
0
SEQEND
0
POLYLINE
8
1
66
1
70
1
0
VERTEX
8
1
10
11.926529
20
8.943718
0
VERTEX
8
1
10
12.081444
20
9.114830
0
VERTEX
8
1
10
12.275444
20
9.070320
0
VERTEX
8
1
10
12.189125
20
9.248726
0
VERTEX
8
1
10
12.324135
20
9.420128
0
VERTEX
8
1
10
12.121887
20
9.418068
0
VERTEX
8
1
10
12.016991
20
9.554001
0
VERTEX
8
1
10
11.985428
20
9.351158
0
VERTEX
8
1
10
11.796753
20
9.225060
0
VERTEX
8
1
10
11.938583
20
9.167076
0
SEQEND
0
POLYLINE
8
1
66
1
70
1
0
VERTEX
8
1
10
12.567802
20
10.080215
0
VERTEX
8
1
10
12.367508
20
10.071671
0
VERTEX
8
1
10
12.262100
20
10.202263
0
VERTEX
8
1
10
12.230301
20
10.001114
0
VERTEX
8
1
10
12.042534
20
9.871887
0
VERTEX
8
1
10
12.183464
20
9.819977
0
VERTEX
8
1
10
12.171417
20
9.601509
0
VERTEX
8
1
10
12.325699
20
9.773727
0
VERTEX
8
1
10
12.520439
20
9.736336
0
VERTEX
8
1
10
12.433853
20
9.909103
0
SEQEND
0
POLYLINE
8
1
66
1
70
1
0
VERTEX
8
1
10
12.121796
20
10.323601
0
VERTEX
8
1
10
12.028122
20
10.498947
0
VERTEX
8
1
10
12.156128
20
10.674660
0
VERTEX
8
1
10
11.953873
20
10.666130
0
VERTEX
8
1
10
11.843460
20
10.798698
0
VERTEX
8
1
10
11.820107
20
10.594810
0
VERTEX
8
1
10
11.636505
20
10.462540
0
VERTEX
8
1
10
11.780724
20
10.409348
0
VERTEX
8
1
10
11.777687
20
10.185822
0
VERTEX
8
1
10
11.925911
20
10.361794
0
SEQEND
0
POLYLINE
8
1
66
1
70
1
0
VERTEX
8
1
10
11.812950
20
9.912224
0
VERTEX
8
1
10
11.611397
20
9.902351
0
VERTEX
8
1
10
11.506271
20
10.037048
0
VERTEX
8
1
10
11.474503
20
9.828331
0
VERTEX
8
1
10
11.285187
20
9.692268
0
VERTEX
8
1
10
11.427528
20
9.638496
0
VERTEX
8
1
10
11.415482
20
9.412086
0
VERTEX
8
1
10
11.569466
20
9.591057
0
VERTEX
8
1
10
11.765297
20
9.552803
0
VERTEX
8
1
10
11.678215
20
9.732857
0
SEQEND
0
POLYLINE
8
1
66
1
70
1
0
VERTEX
8
1
10
11.322525
20
10.111549
0
VERTEX
8
1
10
11.228210
20
10.294441
0
VERTEX
8
1
10
11.356888
20
10.479088
0
VERTEX
8
1
10
11.153511
20
10.468536
0
VERTEX
8
1
10
11.043343
20
10.605118
0
VERTEX
8
1
10
11.020020
20
10.393059
0
VERTEX
8
1
10
10.834908
20
10.253082
0
VERTEX
8
1
10
10.980522
20
10.198380
0
VERTEX
8
1
10
10.977501
20
9.966637
0
VERTEX
8
1
10
11.125313
20
10.150085
0
SEQEND
0
POLYLINE
8
1
66
1
70
1
0
VERTEX
8
1
10
10.876175
20
9.671906
0
VERTEX
8
1
10
10.771294
20
9.810310
0
VERTEX
8
1
10
10.739540
20
9.594078
0
VERTEX
8
1
10
10.548843
20
9.450905
0
VERTEX
8
1
10
10.692398
20
9.395699
0
VERTEX
8
1
10
10.680397
20
9.161667
0
VERTEX
8
1
10
10.834053
20
9.347549
0
VERTEX
8
1
10
11.030960
20
9.308952
0
VERTEX
8
1
10
10.943405
20
9.495949
0
VERTEX
8
1
10
11.078812
20
9.683601
0
SEQEND
0
POLYLINE
8
1
66
1
70
1
0
VERTEX
8
1
10
10.707230
20
8.969948
0
VERTEX
8
1
10
10.502701
20
8.963913
0
VERTEX
8
1
10
10.398331
20
9.107994
0
VERTEX
8
1
10
10.366776
20
8.888618
0
VERTEX
8
1
10
10.175087
20
8.746910
0
VERTEX
8
1
10
10.319626
20
8.685715
0
VERTEX
8
1
10
10.307632
20
8.445496
0
VERTEX
8
1
10
10.461769
20
8.631866
0
VERTEX
8
1
10
10.658203
20
8.586525
0
VERTEX
8
1
10
10.570801
20
8.780266
0
SEQEND
0
POLYLINE
8
1
66
1
70
1
0
VERTEX
8
1
10
11.225029
20
7.478279
0
VERTEX
8
1
10
11.372833
20
7.661720
0
VERTEX
8
1
10
11.570053
20
7.623184
0
VERTEX
8
1
10
11.475739
20
7.806076
0
VERTEX
8
1
10
11.604401
20
7.990730
0
VERTEX
8
1
10
11.401031
20
7.980171
0
VERTEX
8
1
10
11.290871
20
8.116760
0
VERTEX
8
1
10
11.267532
20
7.904694
0
VERTEX
8
1
10
11.082428
20
7.764732
0
VERTEX
8
1
10
11.228050
20
7.710022
0
SEQEND
0
POLYLINE
8
1
66
1
70
1
0
VERTEX
8
1
10
12.025215
20
7.697472
0
VERTEX
8
1
10
12.173416
20
7.873421
0
VERTEX
8
1
10
12.369316
20
7.835251
0
VERTEX
8
1
10
12.275642
20
8.010582
0
VERTEX
8
1
10
12.403641
20
8.186295
0
VERTEX
8
1
10
12.201370
20
8.177765
0
VERTEX
8
1
10
12.090973
20
8.310333
0
VERTEX
8
1
10
12.067627
20
8.106453
0
VERTEX
8
1
10
11.884033
20
7.974182
0
VERTEX
8
1
10
12.028252
20
7.920982
0
SEQEND
0
POLYLINE
8
1
66
1
70
1
0
VERTEX
8
1
10
13.341644
20
9.877998
0
VERTEX
8
1
10
13.255592
20
10.042717
0
VERTEX
8
1
10
13.388535
20
10.205139
0
VERTEX
8
1
10
13.189857
20
10.197556
0
VERTEX
8
1
10
13.084099
20
10.323494
0
VERTEX
8
1
10
13.052246
20
10.130440
0
VERTEX
8
1
10
12.866333
20
10.008118
0
VERTEX
8
1
10
13.005600
20
9.958626
0
VERTEX
8
1
10
12.993523
20
9.748825
0
VERTEX
8
1
10
13.148079
20
9.913971
0
SEQEND
0
POLYLINE
8
1
66
1
70
1
0
VERTEX
8
1
10
12.622955
20
11.703308
42
0.011030
0
VERTEX
8
1
10
12.154930
20
11.700401
42
0.025937
0
VERTEX
8
1
10
10.553131
20
11.369606
42
0.015893
0
VERTEX
8
1
10
10.225250
20
11.268456
0
VERTEX
8
1
10
10.185516
20
11.248672
42
0.066107
0
VERTEX
8
1
10
10.223320
20
11.031464
42
-0.040865
0
VERTEX
8
1
10
12.773232
20
11.661400
0
VERTEX
8
1
10
12.923744
20
11.683243
42
0.036357
0
SEQEND
0
POLYLINE
8
1
66
1
70
1
0
VERTEX
8
1
10
10.837914
20
11.643486
42
-0.030531
0
VERTEX
8
1
10
11.310791
20
11.734718
42
0.015267
0
VERTEX
8
1
10
10.147964
20
11.700401
0
VERTEX
8
1
10
10.166718
20
11.425919
42
-0.032617
0
SEQEND
0
POLYLINE
8
1
66
1
70
1
0
VERTEX
8
1
10
7.950462
20
6.398827
42
0.941096
0
VERTEX
8
1
10
7.947350
20
6.461670
42
-0.194262
0
VERTEX
8
1
10
7.828690
20
6.490875
0
VERTEX
8
1
10
7.821671
20
6.499008
42
-0.255959
0
VERTEX
8
1
10
7.817757
20
6.621170
42
-0.192714
0
VERTEX
8
1
10
7.869591
20
6.649727
42
0.865877
0
VERTEX
8
1
10
7.844933
20
6.707268
42
0.348682
0
VERTEX
8
1
10
7.742401
20
6.590019
0
VERTEX
8
1
10
7.741737
20
6.557739
42
0.401488
0
VERTEX
8
1
10
7.876106
20
6.402412
42
0.058286
0
SEQEND
0
POLYLINE
8
1
66
1
70
1
0
VERTEX
8
1
10
7.915169
20
9.314827
42
0.078990
0
VERTEX
8
1
10
8.378723
20
9.652519
0
VERTEX
8
1
10
8.420471
20
9.693100
42
0.044338
0
VERTEX
8
1
10
9.057289
20
10.466988
0
VERTEX
8
1
10
9.064651
20
10.481178
0
VERTEX
8
1
10
9.065842
20
10.488350
0
VERTEX
8
1
10
9.060570
20
10.488121
0
VERTEX
8
1
10
9.049156
20
10.480537
42
0.036369
0
VERTEX
8
1
10
8.791466
20
10.202232
42
-0.024598
0
VERTEX
8
1
10
8.311066
20
9.668541
0
VERTEX
8
1
10
8.274117
20
9.633911
42
-0.075580
0
VERTEX
8
1
10
7.887154
20
9.356857
0
VERTEX
8
1
10
7.875633
20
9.351234
42
-0.062464
0
VERTEX
8
1
10
7.866516
20
9.696609
42
0.001941
0
VERTEX
8
1
10
7.920944
20
10.286240
42
0.075336
0
VERTEX
8
1
10
7.891983
20
10.762955
42
0.113579
0
VERTEX
8
1
10
7.771248
20
11.023384
0
VERTEX
8
1
10
7.770935
20
11.023354
0
VERTEX
8
1
10
7.770714
20
11.023125
42
0.050623
0
VERTEX
8
1
10
7.803482
20
10.958817
42
-0.112536
0
VERTEX
8
1
10
7.893974
20
10.517937
42
-0.035294
0
VERTEX
8
1
10
7.860809
20
10.074478
0
VERTEX
8
1
10
7.843361
20
9.936401
42
0.045050
0
VERTEX
8
1
10
7.812164
20
9.427765
42
0.033642
0
VERTEX
8
1
10
7.832016
20
9.277954
0
SEQEND
0
POLYLINE
8
1
66
1
70
1
0
VERTEX
8
1
10
7.425079
20
8.218483
0
VERTEX
8
1
10
7.424568
20
8.261971
0
VERTEX
8
1
10
7.424744
20
8.300156
42
-0.148513
0
VERTEX
8
1
10
7.537643
20
8.702995
0
VERTEX
8
1
10
7.558525
20
8.731728
42
-0.009120
0
VERTEX
8
1
10
7.692635
20
8.874031
0
VERTEX
8
1
10
7.696396
20
8.879387
42
0.931690
0
VERTEX
8
1
10
7.684006
20
8.894470
0
VERTEX
8
1
10
7.675926
20
8.893379
42
0.176109
0
VERTEX
8
1
10
7.509254
20
8.768715
42
0.192654
0
VERTEX
8
1
10
7.395302
20
8.289627
42
0.080270
0
VERTEX
8
1
10
7.420769
20
8.174881
0
VERTEX
8
1
10
7.421806
20
8.174133
0
VERTEX
8
1
10
7.422714
20
8.174362
42
0.134433
0
SEQEND
0
POLYLINE
8
1
66
1
70
1
0
VERTEX
8
1
10
6.473701
20
8.471695
42
-0.040560
0
VERTEX
8
1
10
7.158195
20
8.821304
42
-0.039940
0
VERTEX
8
1
10
7.614365
20
8.950630
0
VERTEX
8
1
10
7.617065
20
8.951660
42
0.976191
0
VERTEX
8
1
10
7.620476
20
8.969902
42
0.136195
0
VERTEX
8
1
10
7.473625
20
8.994209
42
0.085972
0
VERTEX
8
1
10
7.156578
20
8.916153
42
0.077112
0
VERTEX
8
1
10
6.174927
20
8.309059
42
0.147012
0
VERTEX
8
1
10
6.154228
20
8.283775
0
VERTEX
8
1
10
6.155647
20
8.283417
42
0.066741
0
VERTEX
8
1
10
6.256218
20
8.339104
42
-0.003067
0
SEQEND
0
POLYLINE
8
1
66
1
70
1
0
VERTEX
8
1
10
7.380829
20
8.678436
42
1.383513
0
VERTEX
8
1
10
7.380058
20
8.681816
42
0.067718
0
VERTEX
8
1
10
7.255119
20
8.623543
42
0.132066
0
VERTEX
8
1
10
6.779198
20
8.168694
42
0.149439
0
VERTEX
8
1
10
6.744080
20
8.044220
42
0.817726
0
VERTEX
8
1
10
6.765442
20
8.041122
42
0.049169
0
VERTEX
8
1
10
6.823837
20
8.122643
42
-0.122409
0
VERTEX
8
1
10
7.319313
20
8.635323
0
VERTEX
8
1
10
7.365891
20
8.666656
0
SEQEND
0
POLYLINE
8
1
66
1
70
1
0
VERTEX
8
1
10
6.649529
20
8.869347
42
-0.059331
0
VERTEX
8
1
10
6.955437
20
8.916245
42
0.126977
0
VERTEX
8
1
10
7.024765
20
8.932747
42
0.500819
0
VERTEX
8
1
10
7.016533
20
8.958435
0
VERTEX
8
1
10
7.010826
20
8.962326
42
0.163755
0
VERTEX
8
1
10
6.822083
20
8.984550
42
0.073333
0
VERTEX
8
1
10
6.462959
20
8.867668
42
0.026675
0
VERTEX
8
1
10
6.153572
20
8.707161
0
VERTEX
8
1
10
6.150246
20
8.703026
0
VERTEX
8
1
10
6.152718
20
8.701195
42
0.065086
0
VERTEX
8
1
10
6.301109
20
8.746201
42
-0.023750
0
SEQEND
0
POLYLINE
8
1
66
1
70
1
0
VERTEX
8
1
10
6.249153
20
8.976059
42
-0.103526
0
VERTEX
8
1
10
6.791130
20
9.088486
42
-0.048279
0
VERTEX
8
1
10
7.335518
20
9.035507
0
VERTEX
8
1
10
7.335373
20
9.036270
0
VERTEX
8
1
10
7.333000
20
9.037621
0
VERTEX
8
1
10
7.322540
20
9.041664
42
0.112523
0
VERTEX
8
1
10
6.485413
20
9.096016
42
0.114939
0
VERTEX
8
1
10
6.249321
20
9.006531
42
0.233489
0
VERTEX
8
1
10
6.222214
20
8.972336
42
0.311614
0
SEQEND
0
POLYLINE
8
1
66
1
70
1
0
VERTEX
8
1
10
7.716949
20
9.012115
42
0.155762
0
VERTEX
8
1
10
7.772957
20
8.999138
0
VERTEX
8
1
10
7.773308
20
9.001968
42
0.114498
0
VERTEX
8
1
10
7.705879
20
9.062553
42
0.042366
0
VERTEX
8
1
10
7.284172
20
9.295586
42
0.024136
0
VERTEX
8
1
10
6.069550
20
9.797623
42
0.228849
0
VERTEX
8
1
10
6.055763
20
9.799110
0
VERTEX
8
1
10
6.060493
20
9.795769
42
0.019571
0
VERTEX
8
1
10
6.400909
20
9.639610
42
-0.020130
0
VERTEX
8
1
10
7.593857
20
9.069336
42
0.015902
0
SEQEND
0
POLYLINE
8
1
66
1
70
1
0
VERTEX
8
1
10
6.880692
20
9.328041
42
0.180679
0
VERTEX
8
1
10
6.109001
20
9.431976
42
0.157498
0
VERTEX
8
1
10
6.064034
20
9.411568
0
VERTEX
8
1
10
6.068481
20
9.410042
42
-0.012141
0
VERTEX
8
1
10
6.332565
20
9.435570
42
-0.126811
0
VERTEX
8
1
10
6.917328
20
9.304039
42
0.044092
0
SEQEND
0
POLYLINE
8
1
66
1
70
1
0
VERTEX
8
1
10
6.625130
20
9.761360
42
0.012546
0
VERTEX
8
1
10
7.128639
20
9.493286
42
-0.056417
0
VERTEX
8
1
10
7.723541
20
9.096741
42
0.141934
0
VERTEX
8
1
10
7.762917
20
9.073067
42
0.293530
0
VERTEX
8
1
10
7.752151
20
9.097839
0
VERTEX
8
1
10
7.745827
20
9.106453
42
0.084140
0
VERTEX
8
1
10
7.413322
20
9.375244
42
0.027077
0
VERTEX
8
1
10
6.828979
20
9.674286
42
0.006466
0
VERTEX
8
1
10
6.568962
20
9.798615
0
VERTEX
8
1
10
6.569458
20
9.797638
42
0.035826
0
SEQEND
0
POLYLINE
8
1
66
1
70
1
0
VERTEX
8
1
10
8.473343
20
9.558311
0
VERTEX
8
1
10
8.473381
20
9.557281
0
VERTEX
8
1
10
8.476135
20
9.558937
42
-0.076444
0
VERTEX
8
1
10
8.765656
20
9.848068
42
-0.210951
0
VERTEX
8
1
10
9.462189
20
9.983437
42
-0.004641
0
VERTEX
8
1
10
9.717239
20
9.920532
42
1.052809
0
VERTEX
8
1
10
9.721191
20
9.930206
0
VERTEX
8
1
10
9.716064
20
9.935501
0
VERTEX
8
1
10
9.708626
20
9.941704
42
0.126159
0
VERTEX
8
1
10
9.386322
20
10.047806
42
0.259317
0
VERTEX
8
1
10
8.579536
20
9.712914
42
0.066224
0
SEQEND
0
POLYLINE
8
1
66
1
70
1
0
VERTEX
8
1
10
9.309517
20
10.597672
0
VERTEX
8
1
10
9.332993
20
10.526375
0
VERTEX
8
1
10
9.273758
20
10.470314
0
VERTEX
8
1
10
9.364761
20
10.466370
0
VERTEX
8
1
10
9.412354
20
10.403435
0
VERTEX
8
1
10
9.445114
20
10.472282
0
VERTEX
8
1
10
9.533745
20
10.489464
0
VERTEX
8
1
10
9.462982
20
10.535957
0
VERTEX
8
1
10
9.470184
20
10.609505
0
VERTEX
8
1
10
9.393692
20
10.569405
0
SEQEND
0
POLYLINE
8
1
66
1
70
1
0
VERTEX
8
1
10
9.412575
20
11.364166
0
VERTEX
8
1
10
9.436058
20
11.292862
0
VERTEX
8
1
10
9.376823
20
11.236809
0
VERTEX
8
1
10
9.467834
20
11.232857
0
VERTEX
8
1
10
9.515411
20
11.169930
0
VERTEX
8
1
10
9.548172
20
11.238777
0
VERTEX
8
1
10
9.636810
20
11.255959
0
VERTEX
8
1
10
9.566048
20
11.302452
0
VERTEX
8
1
10
9.573257
20
11.375992
0
VERTEX
8
1
10
9.496758
20
11.335899
0
SEQEND
0
POLYLINE
8
1
66
1
70
1
0
VERTEX
8
1
10
9.012077
20
10.634850
42
0.090107
0
VERTEX
8
1
10
8.951263
20
10.551369
42
0.078070
0
VERTEX
8
1
10
9.002586
20
10.592804
42
-0.097793
0
VERTEX
8
1
10
9.401924
20
10.853882
42
-0.062280
0
VERTEX
8
1
10
9.695869
20
10.908752
42
0.313751
0
VERTEX
8
1
10
9.722076
20
10.920837
0
VERTEX
8
1
10
9.719528
20
10.925758
0
VERTEX
8
1
10
9.712952
20
10.931091
42
0.169718
0
VERTEX
8
1
10
9.497284
20
10.939751
42
0.152532
0
SEQEND
0
POLYLINE
8
1
66
1
70
1
0
VERTEX
8
1
10
8.849533
20
11.446175
0
VERTEX
8
1
10
8.873016
20
11.374870
0
VERTEX
8
1
10
8.813782
20
11.318825
0
VERTEX
8
1
10
8.904793
20
11.314865
0
VERTEX
8
1
10
8.952370
20
11.251945
0
VERTEX
8
1
10
8.985130
20
11.320778
0
VERTEX
8
1
10
9.073769
20
11.337959
0
VERTEX
8
1
10
9.003006
20
11.384460
0
VERTEX
8
1
10
9.010208
20
11.458000
0
VERTEX
8
1
10
8.933716
20
11.417908
0
SEQEND
0
POLYLINE
8
1
66
1
70
1
0
VERTEX
8
1
10
8.280983
20
9.982697
42
-0.045603
0
VERTEX
8
1
10
7.977417
20
9.577339
42
0.115682
0
VERTEX
8
1
10
7.936722
20
9.513863
0
VERTEX
8
1
10
7.939117
20
9.509666
0
VERTEX
8
1
10
7.942001
20
9.508232
42
0.151325
0
VERTEX
8
1
10
8.027519
20
9.540253
42
0.106852
0
VERTEX
8
1
10
8.257935
20
9.768730
42
0.043022
0
VERTEX
8
1
10
8.492355
20
10.190773
0
VERTEX
8
1
10
8.582382
20
10.382629
42
-0.020128
0
VERTEX
8
1
10
8.801201
20
10.796059
42
1.268235
0
VERTEX
8
1
10
8.796844
20
10.798073
42
0.070552
0
VERTEX
8
1
10
8.707108
20
10.700600
42
0.039978
0
VERTEX
8
1
10
8.497200
20
10.369133
42
-0.013024
0
SEQEND
0
POLYLINE
8
1
66
1
70
1
0
VERTEX
8
1
10
8.121750
20
11.677155
42
0.582598
0
VERTEX
8
1
10
8.089745
20
11.676727
42
0.154970
0
VERTEX
8
1
10
8.104927
20
11.591415
42
-0.055185
0
VERTEX
8
1
10
8.240593
20
11.190628
42
1.200735
0
VERTEX
8
1
10
8.246979
20
11.194839
0
VERTEX
8
1
10
8.248123
20
11.199135
42
0.095236
0
VERTEX
8
1
10
8.234909
20
11.391068
42
0.055281
0
VERTEX
8
1
10
8.155540
20
11.633514
42
0.091324
0
SEQEND
0
POLYLINE
8
1
66
1
70
1
0
VERTEX
8
1
10
8.039520
20
11.142998
42
0.131526
0
VERTEX
8
1
10
7.947784
20
11.255379
0
VERTEX
8
1
10
7.942413
20
11.256027
0
VERTEX
8
1
10
7.939240
20
11.253311
42
0.151291
0
VERTEX
8
1
10
7.954041
20
11.197838
0
VERTEX
8
1
10
7.973007
20
11.150627
42
-0.153946
0
VERTEX
8
1
10
8.068863
20
10.185280
42
0.015179
0
VERTEX
8
1
10
8.038834
20
10.073982
42
0.451760
0
VERTEX
8
1
10
8.040199
20
10.071983
0
VERTEX
8
1
10
8.043854
20
10.075813
0
VERTEX
8
1
10
8.050026
20
10.085480
42
0.096173
0
VERTEX
8
1
10
8.140587
20
10.395538
42
0.116779
0
VERTEX
8
1
10
8.067902
20
11.081696
0
VERTEX
8
1
10
8.054436
20
11.112686
0
SEQEND
0
POLYLINE
8
1
66
1
70
1
0
VERTEX
8
1
10
7.746101
20
11.598312
0
VERTEX
8
1
10
7.769577
20
11.527023
0
VERTEX
8
1
10
7.710342
20
11.470963
0
VERTEX
8
1
10
7.801353
20
11.467018
0
VERTEX
8
1
10
7.848938
20
11.404083
0
VERTEX
8
1
10
7.881699
20
11.472931
0
VERTEX
8
1
10
7.970329
20
11.490120
0
VERTEX
8
1
10
7.899567
20
11.536598
0
VERTEX
8
1
10
7.906769
20
11.610138
0
VERTEX
8
1
10
7.830276
20
11.570045
0
SEQEND
0
POLYLINE
8
1
66
1
70
1
0
VERTEX
8
1
10
7.528709
20
10.583702
0
VERTEX
8
1
10
7.552193
20
10.512398
0
VERTEX
8
1
10
7.492958
20
10.456345
0
VERTEX
8
1
10
7.583969
20
10.452400
0
VERTEX
8
1
10
7.631546
20
10.389465
0
VERTEX
8
1
10
7.664322
20
10.458313
0
VERTEX
8
1
10
7.752945
20
10.475494
0
VERTEX
8
1
10
7.682182
20
10.521988
0
VERTEX
8
1
10
7.689384
20
10.595528
0
VERTEX
8
1
10
7.612892
20
10.555435
0
SEQEND
0
POLYLINE
8
1
66
1
70
1
0
VERTEX
8
1
10
6.695892
20
10.948357
0
VERTEX
8
1
10
6.611717
20
10.976608
0
VERTEX
8
1
10
6.635201
20
10.905319
0
VERTEX
8
1
10
6.575966
20
10.849258
0
VERTEX
8
1
10
6.666977
20
10.845314
0
VERTEX
8
1
10
6.714554
20
10.782379
0
VERTEX
8
1
10
6.747322
20
10.851227
0
VERTEX
8
1
10
6.835953
20
10.868416
0
VERTEX
8
1
10
6.765190
20
10.914909
0
VERTEX
8
1
10
6.772392
20
10.988449
0
SEQEND
0
POLYLINE
8
1
66
1
70
1
0
VERTEX
8
1
10
6.463364
20
11.243011
42
-0.010942
0
VERTEX
8
1
10
6.583397
20
11.127045
0
VERTEX
8
1
10
6.584740
20
11.128082
42
0.131386
0
VERTEX
8
1
10
6.530716
20
11.227943
42
0.113052
0
VERTEX
8
1
10
6.294388
20
11.418358
42
0.176989
0
VERTEX
8
1
10
6.230446
20
11.423599
42
0.510110
0
VERTEX
8
1
10
6.235222
20
11.394043
42
0.093751
0
VERTEX
8
1
10
6.325890
20
11.335335
42
-0.042232
0
SEQEND
0
POLYLINE
8
1
66
1
70
1
0
VERTEX
8
1
10
6.389565
20
10.779144
0
VERTEX
8
1
10
6.474236
20
10.706970
42
-0.038954
0
VERTEX
8
1
10
7.136261
20
10.062103
42
-0.054022
0
VERTEX
8
1
10
7.552956
20
9.449730
42
0.039564
0
VERTEX
8
1
10
7.673477
20
9.253105
0
VERTEX
8
1
10
7.678780
20
9.247200
42
0.431710
0
VERTEX
8
1
10
7.706825
20
9.235657
0
VERTEX
8
1
10
7.708206
20
9.237900
42
0.152029
0
VERTEX
8
1
10
7.703529
20
9.320389
42
0.040668
0
VERTEX
8
1
10
7.657700
20
9.461189
42
0.072624
0
VERTEX
8
1
10
7.500587
20
10.207565
42
0.063698
0
VERTEX
8
1
10
6.980774
20
11.231995
42
0.066243
0
VERTEX
8
1
10
6.785583
20
11.452110
42
0.179972
0
VERTEX
8
1
10
6.741180
20
11.472626
42
0.344424
0
VERTEX
8
1
10
6.739014
20
11.444847
0
VERTEX
8
1
10
6.743256
20
11.432266
0
VERTEX
8
1
10
6.750748
20
11.414436
42
0.032344
0
VERTEX
8
1
10
6.964554
20
11.053528
42
-0.059207
0
VERTEX
8
1
10
7.491432
20
10.004875
42
-0.030828
0
VERTEX
8
1
10
7.621071
20
9.543022
0
VERTEX
8
1
10
7.608284
20
9.568726
0
VERTEX
8
1
10
7.594978
20
9.594162
42
0.075106
0
VERTEX
8
1
10
7.025467
20
10.305916
42
0.044342
0
VERTEX
8
1
10
6.163651
20
10.987251
0
VERTEX
8
1
10
6.153358
20
10.992287
0
VERTEX
8
1
10
6.148758
20
10.993004
0
VERTEX
8
1
10
6.149956
20
10.989220
0
VERTEX
8
1
10
6.156876
20
10.981171
42
0.014671
0
SEQEND
0
POLYLINE
8
1
66
1
70
1
0
VERTEX
8
1
10
6.219795
20
10.169991
42
-0.114758
0
VERTEX
8
1
10
7.041351
20
9.797455
42
0.050453
0
VERTEX
8
1
10
7.176727
20
9.710968
42
0.674788
0
VERTEX
8
1
10
7.193581
20
9.715866
42
0.122761
0
VERTEX
8
1
10
7.120529
20
9.806305
0
VERTEX
8
1
10
7.090782
20
9.832611
42
0.139776
0
VERTEX
8
1
10
6.185982
20
10.198395
42
0.052251
0
VERTEX
8
1
10
6.041191
20
10.200394
0
VERTEX
8
1
10
6.038010
20
10.199158
0
VERTEX
8
1
10
6.040024
20
10.197556
42
-0.001976
0
SEQEND
0
POLYLINE
8
1
66
1
70
1
0
VERTEX
8
1
10
3.113998
20
10.824257
42
-0.042919
0
VERTEX
8
1
10
5.486404
20
11.305832
42
0.140163
0
VERTEX
8
1
10
5.448944
20
11.580231
0
VERTEX
8
1
10
5.447411
20
11.580147
42
0.038096
0
VERTEX
8
1
10
3.060043
20
11.101768
42
0.025946
0
VERTEX
8
1
10
2.204231
20
10.808327
42
0.213161
0
VERTEX
8
1
10
2.183525
20
10.724747
42
0.063039
0
VERTEX
8
1
10
2.222931
20
10.534004
42
-0.019081
0
SEQEND
0
POLYLINE
8
1
66
1
70
1
0
VERTEX
8
1
10
5.473160
20
8.587242
0
VERTEX
8
1
10
5.394485
20
8.755089
0
VERTEX
8
1
10
5.534073
20
8.913879
0
VERTEX
8
1
10
5.335770
20
8.911896
0
VERTEX
8
1
10
5.235725
20
9.040955
0
VERTEX
8
1
10
5.195595
20
8.848595
0
VERTEX
8
1
10
5.004837
20
8.731514
0
VERTEX
8
1
10
5.141663
20
8.677750
0
VERTEX
8
1
10
5.120659
20
8.468155
0
VERTEX
8
1
10
5.281479
20
8.628937
0
SEQEND
0
POLYLINE
8
1
66
1
70
1
0
VERTEX
8
1
10
5.167969
20
7.993103
0
VERTEX
8
1
10
5.074921
20
8.160851
0
VERTEX
8
1
10
5.202156
20
8.327774
0
VERTEX
8
1
10
5.001198
20
8.320869
0
VERTEX
8
1
10
4.890495
20
8.449211
0
VERTEX
8
1
10
4.867149
20
8.253342
0
VERTEX
8
1
10
4.685196
20
8.128433
0
VERTEX
8
1
10
4.827858
20
8.077057
0
VERTEX
8
1
10
4.824821
20
7.861862
0
VERTEX
8
1
10
4.973389
20
8.030563
0
SEQEND
0
POLYLINE
8
1
66
1
70
1
0
VERTEX
8
1
10
4.767960
20
7.247986
0
VERTEX
8
1
10
4.681381
20
7.420738
0
VERTEX
8
1
10
4.815323
20
7.591858
0
VERTEX
8
1
10
4.615036
20
7.583321
0
VERTEX
8
1
10
4.509613
20
7.713913
0
VERTEX
8
1
10
4.477829
20
7.512764
0
VERTEX
8
1
10
4.290062
20
7.383522
0
VERTEX
8
1
10
4.430984
20
7.331627
0
VERTEX
8
1
10
4.418938
20
7.113167
0
VERTEX
8
1
10
4.573212
20
7.285362
0
SEQEND
0
POLYLINE
8
1
66
1
70
1
0
VERTEX
8
1
10
4.012825
20
7.064445
0
VERTEX
8
1
10
3.925735
20
7.244499
0
VERTEX
8
1
10
4.060471
20
7.423843
0
VERTEX
8
1
10
3.858910
20
7.414001
0
VERTEX
8
1
10
3.753792
20
7.548683
0
VERTEX
8
1
10
3.722000
20
7.339973
0
VERTEX
8
1
10
3.532707
20
7.203903
0
VERTEX
8
1
10
3.675041
20
7.150139
0
VERTEX
8
1
10
3.662994
20
6.923721
0
VERTEX
8
1
10
3.816986
20
7.102692
0
SEQEND
0
POLYLINE
8
1
66
1
70
1
0
VERTEX
8
1
10
3.278488
20
6.820602
0
VERTEX
8
1
10
3.190933
20
7.007584
0
VERTEX
8
1
10
3.326324
20
7.195251
0
VERTEX
8
1
10
3.123695
20
7.183556
0
VERTEX
8
1
10
3.018814
20
7.321968
0
VERTEX
8
1
10
2.987045
20
7.105728
0
VERTEX
8
1
10
2.796371
20
6.962540
0
VERTEX
8
1
10
2.939934
20
6.907326
0
VERTEX
8
1
10
2.927925
20
6.673317
0
VERTEX
8
1
10
3.081573
20
6.859200
0
SEQEND
0
POLYLINE
8
1
66
1
70
1
0
VERTEX
8
1
10
2.769531
20
7.297127
0
VERTEX
8
1
10
2.674545
20
7.487213
0
VERTEX
8
1
10
2.803741
20
7.681343
0
VERTEX
8
1
10
2.599503
20
7.667809
0
VERTEX
8
1
10
2.489510
20
7.807976
0
VERTEX
8
1
10
2.466179
20
7.587471
0
VERTEX
8
1
10
2.279694
20
7.438911
0
VERTEX
8
1
10
2.426575
20
7.383400
0
VERTEX
8
1
10
2.423553
20
7.143570
0
VERTEX
8
1
10
2.570908
20
7.335091
0
SEQEND
0
POLYLINE
8
1
66
1
70
1
0
VERTEX
8
1
10
4.920441
20
10.481461
0
VERTEX
8
1
10
4.827400
20
10.649185
0
VERTEX
8
1
10
4.954643
20
10.816139
0
VERTEX
8
1
10
4.753677
20
10.809219
0
VERTEX
8
1
10
4.642975
20
10.937569
0
VERTEX
8
1
10
4.619644
20
10.741714
0
VERTEX
8
1
10
4.437675
20
10.616798
0
VERTEX
8
1
10
4.580338
20
10.565422
0
VERTEX
8
1
10
4.577301
20
10.350212
0
VERTEX
8
1
10
4.725861
20
10.518913
0
SEQEND
0
POLYLINE
8
1
66
1
70
1
0
VERTEX
8
1
10
5.079185
20
9.203697
0
VERTEX
8
1
10
4.993408
20
9.374245
0
VERTEX
8
1
10
5.127510
20
9.537071
0
VERTEX
8
1
10
4.926712
20
9.536079
0
VERTEX
8
1
10
4.821487
20
9.667549
0
VERTEX
8
1
10
4.789871
20
9.472664
0
VERTEX
8
1
10
4.602966
20
9.353493
0
VERTEX
8
1
10
4.743225
20
9.297791
0
VERTEX
8
1
10
4.731163
20
9.082916
0
VERTEX
8
1
10
4.886360
20
9.246941
0
SEQEND
0
POLYLINE
8
1
66
1
70
1
0
VERTEX
8
1
10
4.648598
20
8.469566
0
VERTEX
8
1
10
4.569481
20
8.645622
0
VERTEX
8
1
10
4.710190
20
8.812881
0
VERTEX
8
1
10
4.510124
20
8.810493
0
VERTEX
8
1
10
4.410477
20
8.944450
0
VERTEX
8
1
10
4.370430
20
8.744171
0
VERTEX
8
1
10
4.177750
20
8.620598
0
VERTEX
8
1
10
4.316254
20
8.563995
0
VERTEX
8
1
10
4.295250
20
8.345558
0
VERTEX
8
1
10
4.455887
20
8.513161
0
SEQEND
0
POLYLINE
8
1
66
1
70
1
0
VERTEX
8
1
10
3.888481
20
8.309723
0
VERTEX
8
1
10
3.808945
20
8.493248
0
VERTEX
8
1
10
3.950577
20
8.668594
0
VERTEX
8
1
10
3.749092
20
8.665382
0
VERTEX
8
1
10
3.649757
20
8.803635
0
VERTEX
8
1
10
3.609787
20
8.595886
0
VERTEX
8
1
10
3.415482
20
8.465904
0
VERTEX
8
1
10
3.555367
20
8.407028
0
VERTEX
8
1
10
3.534393
20
8.180450
0
VERTEX
8
1
10
3.694824
20
8.354660
0
SEQEND
0
POLYLINE
8
1
66
1
70
1
0
VERTEX
8
1
10
3.147118
20
8.090256
0
VERTEX
8
1
10
3.067207
20
8.280952
0
VERTEX
8
1
10
3.209618
20
8.464508
0
VERTEX
8
1
10
3.006943
20
8.459923
0
VERTEX
8
1
10
2.907860
20
8.602150
0
VERTEX
8
1
10
2.867935
20
8.386925
0
VERTEX
8
1
10
2.672195
20
8.250206
0
VERTEX
8
1
10
2.813316
20
8.189484
0
VERTEX
8
1
10
2.792374
20
7.955086
0
VERTEX
8
1
10
2.952515
20
8.136032
0
SEQEND
0
POLYLINE
8
1
66
1
70
1
0
VERTEX
8
1
10
3.119614
20
8.751511
0
VERTEX
8
1
10
3.274185
20
8.929947
0
VERTEX
8
1
10
3.469368
20
8.884583
0
VERTEX
8
1
10
3.382523
20
9.070747
0
VERTEX
8
1
10
3.518295
20
9.251038
0
VERTEX
8
1
10
3.314774
20
9.247452
0
VERTEX
8
1
10
3.210190
20
9.387642
0
VERTEX
8
1
10
3.178642
20
9.176720
0
VERTEX
8
1
10
2.988396
20
9.043274
0
VERTEX
8
1
10
3.131638
20
8.983345
0
SEQEND
0
POLYLINE
8
1
66
1
70
1
0
VERTEX
8
1
10
3.926529
20
8.943718
0
VERTEX
8
1
10
4.081444
20
9.114830
0
VERTEX
8
1
10
4.275444
20
9.070320
0
VERTEX
8
1
10
4.189125
20
9.248726
0
VERTEX
8
1
10
4.324135
20
9.420128
0
VERTEX
8
1
10
4.121887
20
9.418068
0
VERTEX
8
1
10
4.016991
20
9.554001
0
VERTEX
8
1
10
3.985428
20
9.351158
0
VERTEX
8
1
10
3.796753
20
9.225060
0
VERTEX
8
1
10
3.938583
20
9.167076
0
SEQEND
0
POLYLINE
8
1
66
1
70
1
0
VERTEX
8
1
10
4.567802
20
10.080215
0
VERTEX
8
1
10
4.367508
20
10.071671
0
VERTEX
8
1
10
4.262100
20
10.202263
0
VERTEX
8
1
10
4.230301
20
10.001114
0
VERTEX
8
1
10
4.042534
20
9.871887
0
VERTEX
8
1
10
4.183464
20
9.819977
0
VERTEX
8
1
10
4.171417
20
9.601509
0
VERTEX
8
1
10
4.325699
20
9.773727
0
VERTEX
8
1
10
4.520439
20
9.736336
0
VERTEX
8
1
10
4.433853
20
9.909103
0
SEQEND
0
POLYLINE
8
1
66
1
70
1
0
VERTEX
8
1
10
4.121796
20
10.323601
0
VERTEX
8
1
10
4.028122
20
10.498947
0
VERTEX
8
1
10
4.156128
20
10.674660
0
VERTEX
8
1
10
3.953873
20
10.666130
0
VERTEX
8
1
10
3.843460
20
10.798698
0
VERTEX
8
1
10
3.820107
20
10.594810
0
VERTEX
8
1
10
3.636505
20
10.462540
0
VERTEX
8
1
10
3.780724
20
10.409348
0
VERTEX
8
1
10
3.777687
20
10.185822
0
VERTEX
8
1
10
3.925911
20
10.361794
0
SEQEND
0
POLYLINE
8
1
66
1
70
1
0
VERTEX
8
1
10
3.812950
20
9.912224
0
VERTEX
8
1
10
3.611397
20
9.902351
0
VERTEX
8
1
10
3.506271
20
10.037048
0
VERTEX
8
1
10
3.474503
20
9.828331
0
VERTEX
8
1
10
3.285187
20
9.692268
0
VERTEX
8
1
10
3.427528
20
9.638496
0
VERTEX
8
1
10
3.415482
20
9.412086
0
VERTEX
8
1
10
3.569466
20
9.591057
0
VERTEX
8
1
10
3.765297
20
9.552803
0
VERTEX
8
1
10
3.678215
20
9.732857
0
SEQEND
0
POLYLINE
8
1
66
1
70
1
0
VERTEX
8
1
10
3.322525
20
10.111549
0
VERTEX
8
1
10
3.228210
20
10.294441
0
VERTEX
8
1
10
3.356888
20
10.479088
0
VERTEX
8
1
10
3.153511
20
10.468536
0
VERTEX
8
1
10
3.043343
20
10.605118
0
VERTEX
8
1
10
3.020020
20
10.393059
0
VERTEX
8
1
10
2.834908
20
10.253082
0
VERTEX
8
1
10
2.980522
20
10.198380
0
VERTEX
8
1
10
2.977501
20
9.966637
0
VERTEX
8
1
10
3.125313
20
10.150085
0
SEQEND
0
POLYLINE
8
1
66
1
70
1
0
VERTEX
8
1
10
2.876175
20
9.671906
0
VERTEX
8
1
10
2.771294
20
9.810310
0
VERTEX
8
1
10
2.739540
20
9.594078
0
VERTEX
8
1
10
2.548843
20
9.450905
0
VERTEX
8
1
10
2.692398
20
9.395699
0
VERTEX
8
1
10
2.680397
20
9.161667
0
VERTEX
8
1
10
2.834053
20
9.347549
0
VERTEX
8
1
10
3.030960
20
9.308952
0
VERTEX
8
1
10
2.943405
20
9.495949
0
VERTEX
8
1
10
3.078812
20
9.683601
0
SEQEND
0
POLYLINE
8
1
66
1
70
1
0
VERTEX
8
1
10
2.707230
20
8.969948
0
VERTEX
8
1
10
2.502701
20
8.963913
0
VERTEX
8
1
10
2.398331
20
9.107994
0
VERTEX
8
1
10
2.366776
20
8.888618
0
VERTEX
8
1
10
2.175087
20
8.746910
0
VERTEX
8
1
10
2.319626
20
8.685715
0
VERTEX
8
1
10
2.307632
20
8.445496
0
VERTEX
8
1
10
2.461769
20
8.631866
0
VERTEX
8
1
10
2.658203
20
8.586525
0
VERTEX
8
1
10
2.570801
20
8.780266
0
SEQEND
0
POLYLINE
8
1
66
1
70
1
0
VERTEX
8
1
10
3.225029
20
7.478279
0
VERTEX
8
1
10
3.372833
20
7.661720
0
VERTEX
8
1
10
3.570053
20
7.623184
0
VERTEX
8
1
10
3.475739
20
7.806076
0
VERTEX
8
1
10
3.604401
20
7.990730
0
VERTEX
8
1
10
3.401031
20
7.980171
0
VERTEX
8
1
10
3.290871
20
8.116760
0
VERTEX
8
1
10
3.267532
20
7.904694
0
VERTEX
8
1
10
3.082428
20
7.764732
0
VERTEX
8
1
10
3.228050
20
7.710022
0
SEQEND
0
POLYLINE
8
1
66
1
70
1
0
VERTEX
8
1
10
4.025215
20
7.697472
0
VERTEX
8
1
10
4.173416
20
7.873421
0
VERTEX
8
1
10
4.369316
20
7.835251
0
VERTEX
8
1
10
4.275642
20
8.010582
0
VERTEX
8
1
10
4.403641
20
8.186295
0
VERTEX
8
1
10
4.201370
20
8.177765
0
VERTEX
8
1
10
4.090973
20
8.310333
0
VERTEX
8
1
10
4.067627
20
8.106453
0
VERTEX
8
1
10
3.884033
20
7.974182
0
VERTEX
8
1
10
4.028252
20
7.920982
0
SEQEND
0
POLYLINE
8
1
66
1
70
1
0
VERTEX
8
1
10
5.341644
20
9.877998
0
VERTEX
8
1
10
5.255592
20
10.042717
0
VERTEX
8
1
10
5.388535
20
10.205139
0
VERTEX
8
1
10
5.189857
20
10.197556
0
VERTEX
8
1
10
5.084099
20
10.323494
0
VERTEX
8
1
10
5.052246
20
10.130440
0
VERTEX
8
1
10
4.866333
20
10.008118
0
VERTEX
8
1
10
5.005600
20
9.958626
0
VERTEX
8
1
10
4.993523
20
9.748825
0
VERTEX
8
1
10
5.148079
20
9.913971
0
SEQEND
0
POLYLINE
8
1
66
1
70
1
0
VERTEX
8
1
10
4.622963
20
11.703308
42
0.011030
0
VERTEX
8
1
10
4.154930
20
11.700401
42
0.026117
0
VERTEX
8
1
10
2.553123
20
11.369606
42
0.015873
0
VERTEX
8
1
10
2.225250
20
11.268456
0
VERTEX
8
1
10
2.185516
20
11.248672
42
0.066107
0
VERTEX
8
1
10
2.223320
20
11.031464
42
-0.040865
0
VERTEX
8
1
10
4.773232
20
11.661400
0
VERTEX
8
1
10
4.923744
20
11.683243
42
0.036356
0
SEQEND
0
POLYLINE
8
1
66
1
70
1
0
VERTEX
8
1
10
2.837914
20
11.643486
42
-0.030531
0
VERTEX
8
1
10
3.310791
20
11.734718
42
0.015267
0
VERTEX
8
1
10
2.147964
20
11.700401
0
VERTEX
8
1
10
2.166718
20
11.425919
42
-0.032605
0
SEQEND
0
POLYLINE
8
1
66
1
70
1
0
VERTEX
8
1
10
2.218658
20
10.075836
0
VERTEX
8
1
10
2.032181
20
9.927277
0
VERTEX
8
1
10
2.179062
20
9.871773
0
VERTEX
8
1
10
2.176041
20
9.631950
0
VERTEX
8
1
10
2.323395
20
9.823448
0
VERTEX
8
1
10
2.522011
20
9.785484
0
VERTEX
8
1
10
2.427025
20
9.975601
0
VERTEX
8
1
10
2.556229
20
10.169693
0
VERTEX
8
1
10
2.351982
20
10.156189
0
VERTEX
8
1
10
2.241989
20
10.296349
0
SEQEND
0
POLYLINE
8
1
66
1
70
1
0
VERTEX
8
1
10
2.835915
20
1.059723
0
VERTEX
8
1
10
2.743484
20
1.219528
0
VERTEX
8
1
10
2.869781
20
1.378242
0
VERTEX
8
1
10
2.670410
20
1.371910
0
VERTEX
8
1
10
2.559349
20
1.495567
0
VERTEX
8
1
10
2.535957
20
1.307442
0
VERTEX
8
1
10
2.355850
20
1.188980
0
VERTEX
8
1
10
2.496788
20
1.140182
0
VERTEX
8
1
10
2.493759
20
0.933411
0
VERTEX
8
1
10
2.642586
20
1.095490
0
SEQEND
0
POLYLINE
8
1
66
1
70
1
0
VERTEX
8
1
10
3.701431
20
1.541077
0
VERTEX
8
1
10
3.664200
20
1.605415
0
VERTEX
8
1
10
3.715065
20
1.669342
0
VERTEX
8
1
10
3.634781
20
1.666794
0
VERTEX
8
1
10
3.590042
20
1.716599
0
VERTEX
8
1
10
3.580627
20
1.640831
0
VERTEX
8
1
10
3.508095
20
1.593132
0
VERTEX
8
1
10
3.564850
20
1.573479
0
VERTEX
8
1
10
3.563629
20
1.490196
0
VERTEX
8
1
10
3.623566
20
1.555481
0
SEQEND
0
POLYLINE
8
1
66
1
70
1
0
VERTEX
8
1
10
2.914360
20
1.776413
0
VERTEX
8
1
10
4.952713
20
1.776413
0
VERTEX
8
1
10
4.952713
20
1.866402
0
VERTEX
8
1
10
2.914360
20
1.866402
0
SEQEND
0
POLYLINE
8
1
66
1
70
1
0
VERTEX
8
1
10
3.352737
20
1.322121
0
VERTEX
8
1
10
3.279594
20
1.448570
0
VERTEX
8
1
10
3.379532
20
1.574165
0
VERTEX
8
1
10
3.221764
20
1.569153
0
VERTEX
8
1
10
3.133881
20
1.667007
0
VERTEX
8
1
10
3.115372
20
1.518150
0
VERTEX
8
1
10
2.972855
20
1.424400
0
VERTEX
8
1
10
3.084381
20
1.385788
0
VERTEX
8
1
10
3.081985
20
1.222183
0
VERTEX
8
1
10
3.199753
20
1.350426
0
SEQEND
0
POLYLINE
8
1
66
1
70
1
0
VERTEX
8
1
10
5.524368
20
1.156334
0
VERTEX
8
1
10
5.524368
20
1.267448
0
VERTEX
8
1
10
3.385475
20
1.267448
0
VERTEX
8
1
10
3.385475
20
1.156334
0
SEQEND
0
POLYLINE
8
1
66
1
70
1
0
VERTEX
8
1
10
5.524368
20
1.350777
0
VERTEX
8
1
10
5.524368
20
1.461891
0
VERTEX
8
1
10
3.616959
20
1.461891
0
VERTEX
8
1
10
3.616959
20
1.350777
0
SEQEND
0
POLYLINE
8
1
66
1
70
1
0
VERTEX
8
1
10
5.524368
20
1.656334
0
VERTEX
8
1
10
3.855385
20
1.656334
0
VERTEX
8
1
10
3.855385
20
1.545227
0
VERTEX
8
1
10
5.524368
20
1.545227
0
SEQEND
0
POLYLINE
8
1
66
1
70
1
0
VERTEX
8
1
10
5.391876
20
5.897652
0
VERTEX
8
1
10
2.391876
20
5.897652
42
1.000000
0
VERTEX
8
1
10
2.391876
20
5.835152
0
VERTEX
8
1
10
5.394104
20
5.835228
42
0.965052
0
SEQEND
0
POLYLINE
8
1
66
1
70
1
0
VERTEX
8
1
10
4.662666
20
5.998108
0
VERTEX
8
1
10
5.487938
20
5.998108
42
0.054137
0
VERTEX
8
1
10
5.512947
20
6.181099
42
0.073736
0
SEQEND
0
POLYLINE
8
1
66
1
70
1
0
VERTEX
8
1
10
5.568260
20
6.384850
42
0.094748
0
VERTEX
8
1
10
5.565094
20
6.536835
0
VERTEX
8
1
10
5.534058
20
6.544922
0
VERTEX
8
1
10
5.416512
20
6.534019
42
0.036297
0
VERTEX
8
1
10
4.118683
20
6.279495
42
0.014997
0
VERTEX
8
1
10
3.312637
20
6.043800
42
0.044238
0
VERTEX
8
1
10
3.977585
20
6.020309
42
-0.043841
0
VERTEX
8
1
10
4.734573
20
6.228157
42
-0.016757
0
VERTEX
8
1
10
5.562958
20
6.364113
42
0.034236
0
SEQEND
0
POLYLINE
8
1
66
1
70
1
0
VERTEX
8
1
10
5.599586
20
6.838547
42
0.093805
0
VERTEX
8
1
10
5.614510
20
7.085693
0
VERTEX
8
1
10
5.549950
20
7.084991
0
VERTEX
8
1
10
5.392471
20
7.055801
42
0.035618
0
VERTEX
8
1
10
2.712250
20
6.318451
42
0.007642
0
VERTEX
8
1
10
2.136902
20
6.043854
42
0.031545
0
VERTEX
8
1
10
2.731377
20
6.074203
42
0.094102
0
VERTEX
8
1
10
2.878365
20
6.119156
0
VERTEX
8
1
10
2.993340
20
6.167091
0
VERTEX
8
1
10
3.113258
20
6.213379
42
-0.033270
0
VERTEX
8
1
10
4.424088
20
6.583107
42
-0.016930
0
VERTEX
8
1
10
5.587967
20
6.798737
42
0.023931
0
SEQEND
0
POLYLINE
8
1
66
1
70
1
0
VERTEX
8
1
10
5.503128
20
7.554352
0
VERTEX
8
1
10
5.636055
20
7.716774
0
VERTEX
8
1
10
5.437378
20
7.709190
0
VERTEX
8
1
10
5.331619
20
7.835129
0
VERTEX
8
1
10
5.299751
20
7.642067
0
VERTEX
8
1
10
5.113853
20
7.519737
0
VERTEX
8
1
10
5.253113
20
7.470276
0
VERTEX
8
1
10
5.241043
20
7.260460
0
VERTEX
8
1
10
5.395592
20
7.425621
0
VERTEX
8
1
10
5.589165
20
7.389656
0
SEQEND
0
POLYLINE
8
1
66
1
70
1
0
VERTEX
8
1
10
5.717697
20
10.535919
0
VERTEX
8
1
10
5.625267
20
10.695724
0
VERTEX
8
1
10
5.751564
20
10.854439
0
VERTEX
8
1
10
5.552193
20
10.848106
0
VERTEX
8
1
10
5.441124
20
10.971764
0
VERTEX
8
1
10
5.417740
20
10.783653
0
VERTEX
8
1
10
5.237625
20
10.665176
0
VERTEX
8
1
10
5.378571
20
10.616379
0
VERTEX
8
1
10
5.375542
20
10.409615
0
VERTEX
8
1
10
5.524368
20
10.571686
0
SEQEND
0
POLYLINE
8
1
66
1
70
1
0
VERTEX
8
1
10
5.981865
20
4.885582
0
VERTEX
8
1
10
5.891869
20
4.885582
0
VERTEX
8
1
10
5.891869
20
2.847229
0
VERTEX
8
1
10
5.981865
20
2.847229
0
SEQEND
0
POLYLINE
8
1
66
1
70
1
0
VERTEX
8
1
10
5.923103
20
11.367584
42
0.981311
0
VERTEX
8
1
10
5.860626
20
11.366409
0
VERTEX
8
1
10
5.860649
20
6.365234
42
0.981446
0
VERTEX
8
1
10
5.923126
20
6.366402
0
SEQEND
0
POLYLINE
8
1
66
1
70
1
0
VERTEX
8
1
10
6.074745
20
9.247627
42
-0.046036
0
VERTEX
8
1
10
6.969856
20
9.149483
42
0.067307
0
VERTEX
8
1
10
7.157219
20
9.134720
42
0.568978
0
VERTEX
8
1
10
7.168381
20
9.145630
42
0.100724
0
VERTEX
8
1
10
7.050674
20
9.192459
42
0.079377
0
VERTEX
8
1
10
6.091354
20
9.267143
42
0.054780
0
VERTEX
8
1
10
6.016869
20
9.253242
0
VERTEX
8
1
10
6.018440
20
9.252060
42
0.044430
0
SEQEND
0
POLYLINE
8
1
66
1
70
1
0
VERTEX
8
1
10
6.320572
20
6.401321
0
VERTEX
8
1
10
6.321754
20
6.401459
0
VERTEX
8
1
10
6.321754
20
6.184082
42
-0.019063
0
VERTEX
8
1
10
6.110748
20
6.183716
42
0.930400
0
VERTEX
8
1
10
6.112038
20
6.120911
0
VERTEX
8
1
10
6.355530
20
6.120949
42
0.393305
0
VERTEX
8
1
10
6.384758
20
6.152359
0
VERTEX
8
1
10
6.384750
20
6.673698
42
0.445311
0
VERTEX
8
1
10
6.352531
20
6.708168
0
VERTEX
8
1
10
6.103371
20
6.708160
42
1.005800
0
VERTEX
8
1
10
6.103485
20
6.645172
0
VERTEX
8
1
10
6.321350
20
6.645172
0
VERTEX
8
1
10
6.321754
20
6.640503
0
VERTEX
8
1
10
6.321762
20
6.460983
0
VERTEX
8
1
10
6.321129
20
6.458717
42
0.108883
0
VERTEX
8
1
10
6.308105
20
6.461632
0
VERTEX
8
1
10
6.159439
20
6.461632
42
1.005055
0
VERTEX
8
1
10
6.158485
20
6.398651
0
VERTEX
8
1
10
6.309135
20
6.398659
42
0.094087
0
SEQEND
0
POLYLINE
8
1
66
1
70
1
0
VERTEX
8
1
10
6.459076
20
8.084373
42
-0.131517
0
VERTEX
8
1
10
6.809006
20
8.552223
42
0.070309
0
VERTEX
8
1
10
6.818306
20
8.563431
0
VERTEX
8
1
10
6.816978
20
8.563911
0
VERTEX
8
1
10
6.813713
20
8.563011
0
VERTEX
8
1
10
6.808594
20
8.560791
0
VERTEX
8
1
10
6.792007
20
8.551933
0
VERTEX
8
1
10
6.775772
20
8.542450
42
0.212560
0
VERTEX
8
1
10
6.323906
20
7.828743
42
0.140493
0
VERTEX
8
1
10
6.336388
20
7.713364
0
VERTEX
8
1
10
6.341240
20
7.710266
42
0.295123
0
VERTEX
8
1
10
6.361115
20
7.736862
42
0.021117
0
VERTEX
8
1
10
6.412354
20
7.940048
42
-0.029608
0
SEQEND
0
POLYLINE
8
1
66
1
70
1
0
VERTEX
8
1
10
6.542625
20
8.049469
0
VERTEX
8
1
10
6.552055
20
8.007751
0
VERTEX
8
1
10
6.528275
20
7.974937
0
VERTEX
8
1
10
6.564804
20
7.972618
0
VERTEX
8
1
10
6.583893
20
7.935799
0
VERTEX
8
1
10
6.597046
20
7.976089
0
VERTEX
8
1
10
6.632607
20
7.986145
0
VERTEX
8
1
10
6.604210
20
8.013351
0
VERTEX
8
1
10
6.607109
20
8.056404
0
VERTEX
8
1
10
6.576408
20
8.032936
0
SEQEND
0
POLYLINE
8
1
66
1
70
1
0
VERTEX
8
1
10
6.461723
20
7.303413
0
VERTEX
8
1
10
6.408554
20
7.247360
0
VERTEX
8
1
10
6.490242
20
7.243416
0
VERTEX
8
1
10
6.532951
20
7.180481
0
VERTEX
8
1
10
6.562355
20
7.249329
0
VERTEX
8
1
10
6.641914
20
7.266510
0
VERTEX
8
1
10
6.578392
20
7.312996
0
VERTEX
8
1
10
6.584854
20
7.386536
0
VERTEX
8
1
10
6.516197
20
7.346443
0
VERTEX
8
1
10
6.440643
20
7.374702
0
SEQEND
0
POLYLINE
8
1
66
1
70
1
0
VERTEX
8
1
10
6.830818
20
6.697739
0
VERTEX
8
1
10
6.441666
20
6.697746
42
1.028477
0
VERTEX
8
1
10
6.440239
20
6.634750
0
VERTEX
8
1
10
6.608406
20
6.634758
0
VERTEX
8
1
10
6.609947
20
6.631561
0
VERTEX
8
1
10
6.609940
20
6.132690
42
1.036556
0
VERTEX
8
1
10
6.672958
20
6.132698
0
VERTEX
8
1
10
6.672943
20
6.631561
0
VERTEX
8
1
10
6.674400
20
6.634758
0
VERTEX
8
1
10
6.832253
20
6.634758
42
1.027892
0
SEQEND
0
POLYLINE
8
1
66
1
70
1
0
VERTEX
8
1
10
7.044495
20
6.697533
0
VERTEX
8
1
10
6.994415
20
6.701149
42
0.356536
0
VERTEX
8
1
10
6.961922
20
6.678604
0
VERTEX
8
1
10
6.798294
20
6.138771
42
0.969000
0
VERTEX
8
1
10
6.859093
20
6.122383
0
VERTEX
8
1
10
6.915657
20
6.308365
0
VERTEX
8
1
10
7.001556
20
6.308365
42
1.005559
0
VERTEX
8
1
10
7.003220
20
6.371330
0
VERTEX
8
1
10
6.934624
20
6.371483
0
VERTEX
8
1
10
7.014999
20
6.636505
0
VERTEX
8
1
10
7.016548
20
6.636398
0
VERTEX
8
1
10
7.162987
20
6.127258
42
1.032488
0
VERTEX
8
1
10
7.223526
20
6.144714
0
VERTEX
8
1
10
7.070419
20
6.676857
42
0.283577
0
SEQEND
0
POLYLINE
8
1
66
1
70
1
0
VERTEX
8
1
10
7.164040
20
7.235443
42
0.045196
0
VERTEX
8
1
10
7.563553
20
7.954926
42
0.029387
0
VERTEX
8
1
10
7.770096
20
8.474121
0
VERTEX
8
1
10
7.784019
20
8.526283
42
0.094199
0
VERTEX
8
1
10
7.805923
20
8.724998
42
0.475219
0
VERTEX
8
1
10
7.780891
20
8.751022
0
VERTEX
8
1
10
7.773338
20
8.746826
42
0.105449
0
VERTEX
8
1
10
7.705772
20
8.643341
42
0.026206
0
VERTEX
8
1
10
7.541748
20
8.219734
42
-0.040810
0
VERTEX
8
1
10
7.106026
20
7.255684
42
0.000476
0
VERTEX
8
1
10
6.949913
20
7.003464
0
VERTEX
8
1
10
6.949638
20
7.002090
42
0.610167
0
VERTEX
8
1
10
6.960861
20
7.003998
42
0.071835
0
SEQEND
0
POLYLINE
8
1
66
1
70
1
0
VERTEX
8
1
10
7.476135
20
6.374352
42
0.948342
0
VERTEX
8
1
10
7.476753
20
6.437271
42
-0.295593
0
VERTEX
8
1
10
7.384834
20
6.483841
0
VERTEX
8
1
10
7.376419
20
6.502777
0
VERTEX
8
1
10
7.368767
20
6.524574
42
-0.473669
0
VERTEX
8
1
10
7.431862
20
6.639954
0
VERTEX
8
1
10
7.444618
20
6.643120
0
VERTEX
8
1
10
7.457611
20
6.645081
0
VERTEX
8
1
10
7.564278
20
6.639786
0
VERTEX
8
1
10
7.564812
20
6.626495
0
VERTEX
8
1
10
7.564987
20
6.131676
42
0.948154
0
VERTEX
8
1
10
7.627815
20
6.135002
0
VERTEX
8
1
10
7.627815
20
6.668106
42
0.384034
0
VERTEX
8
1
10
7.601074
20
6.700867
0
VERTEX
8
1
10
7.453873
20
6.708023
0
VERTEX
8
1
10
7.421440
20
6.702339
42
0.485352
0
VERTEX
8
1
10
7.312904
20
6.493240
42
0.194309
0
VERTEX
8
1
10
7.386208
20
6.395325
42
0.206329
0
VERTEX
8
1
10
7.331238
20
6.290443
42
-0.034543
0
VERTEX
8
1
10
7.300400
20
6.150169
42
1.207529
0
VERTEX
8
1
10
7.350868
20
6.111115
0
VERTEX
8
1
10
7.357605
20
6.124298
42
0.028054
0
VERTEX
8
1
10
7.398743
20
6.304504
42
-0.206381
0
VERTEX
8
1
10
7.429840
20
6.347885
42
0.241231
0
VERTEX
8
1
10
7.435570
20
6.375931
0
VERTEX
8
1
10
7.437515
20
6.378052
42
0.039721
0
SEQEND
0
POLYLINE
8
1
66
1
70
1
0
VERTEX
8
1
10
7.968796
20
6.113922
0
VERTEX
8
1
10
8.026871
20
6.113922
42
0.414249
0
VERTEX
8
1
10
8.058365
20
6.145416
0
VERTEX
8
1
10
8.058365
20
6.676666
42
0.414249
0
VERTEX
8
1
10
8.026871
20
6.708160
0
VERTEX
8
1
10
7.967842
20
6.708160
42
1.000273
0
VERTEX
8
1
10
7.967842
20
6.645172
0
VERTEX
8
1
10
7.995369
20
6.645172
0
VERTEX
8
1
10
7.995369
20
6.176910
42
-0.119157
0
VERTEX
8
1
10
7.833527
20
6.198952
0
VERTEX
8
1
10
7.816971
20
6.211411
42
-0.129658
0
VERTEX
8
1
10
7.791359
20
6.305992
0
VERTEX
8
1
10
7.793518
20
6.311470
0
VERTEX
8
1
10
7.796829
20
6.315720
42
1.083829
0
VERTEX
8
1
10
7.759598
20
6.367043
42
0.318627
0
VERTEX
8
1
10
7.732895
20
6.259048
42
0.174998
0
VERTEX
8
1
10
7.783203
20
6.157410
0
VERTEX
8
1
10
7.809578
20
6.140686
42
0.113220
0
SEQEND
0
POLYLINE
8
1
66
1
70
1
0
VERTEX
8
1
10
8.116440
20
7.605759
0
VERTEX
8
1
10
8.130379
20
7.641815
42
0.134368
0
VERTEX
8
1
10
8.144722
20
8.125481
42
0.091961
0
VERTEX
8
1
10
8.054008
20
8.377869
42
0.153551
0
VERTEX
8
1
10
7.989052
20
8.440048
0
VERTEX
8
1
10
7.983299
20
8.439728
0
VERTEX
8
1
10
7.981339
20
8.438660
42
0.216285
0
VERTEX
8
1
10
7.975433
20
8.385071
42
0.042014
0
VERTEX
8
1
10
8.032425
20
8.184532
42
-0.116216
0
VERTEX
8
1
10
8.083778
20
7.672157
42
-0.040263
0
VERTEX
8
1
10
8.026474
20
7.479759
42
1.187011
0
VERTEX
8
1
10
8.032143
20
7.476936
42
0.114474
0
SEQEND
0
POLYLINE
8
1
66
1
70
1
0
VERTEX
8
1
10
8.396957
20
6.401321
0
VERTEX
8
1
10
8.398148
20
6.401459
0
VERTEX
8
1
10
8.398155
20
6.184082
42
-0.019038
0
VERTEX
8
1
10
8.187141
20
6.183716
42
0.930274
0
VERTEX
8
1
10
8.188423
20
6.120911
0
VERTEX
8
1
10
8.431915
20
6.120949
42
0.393305
0
VERTEX
8
1
10
8.461143
20
6.152359
0
VERTEX
8
1
10
8.461143
20
6.673698
42
0.445104
0
VERTEX
8
1
10
8.428917
20
6.708168
0
VERTEX
8
1
10
8.179756
20
6.708160
42
1.005557
0
VERTEX
8
1
10
8.179871
20
6.645172
0
VERTEX
8
1
10
8.397743
20
6.645172
0
VERTEX
8
1
10
8.398148
20
6.640503
0
VERTEX
8
1
10
8.398140
20
6.460983
0
VERTEX
8
1
10
8.397514
20
6.458717
42
0.108888
0
VERTEX
8
1
10
8.384491
20
6.461632
0
VERTEX
8
1
10
8.235817
20
6.461632
42
1.004766
0
VERTEX
8
1
10
8.234879
20
6.398651
0
VERTEX
8
1
10
8.385521
20
6.398659
42
0.094087
0
SEQEND
0
POLYLINE
8
1
66
1
70
1
0
VERTEX
8
1
10
8.504578
20
8.030678
42
0.128245
0
VERTEX
8
1
10
8.174423
20
8.568710
42
0.111631
0
VERTEX
8
1
10
7.957184
20
8.705490
42
1.422435
0
VERTEX
8
1
10
7.953789
20
8.698364
42
-0.136238
0
VERTEX
8
1
10
8.335907
20
8.195381
42
-0.011798
0
VERTEX
8
1
10
8.418091
20
7.972855
42
0.118639
0
VERTEX
8
1
10
8.475616
20
7.877968
42
0.583289
0
VERTEX
8
1
10
8.507385
20
7.891785
42
0.153668
0
SEQEND
0
POLYLINE
8
1
66
1
70
1
0
VERTEX
8
1
10
8.748840
20
6.700974
0
VERTEX
8
1
10
8.748840
20
6.183853
0
VERTEX
8
1
10
8.551170
20
6.183853
42
1.000273
0
VERTEX
8
1
10
8.551170
20
6.120865
0
VERTEX
8
1
10
8.780342
20
6.120865
42
0.414072
0
VERTEX
8
1
10
8.811844
20
6.152359
0
VERTEX
8
1
10
8.811844
20
6.700974
42
0.999788
0
SEQEND
0
POLYLINE
8
1
66
1
70
1
0
VERTEX
8
1
10
8.754059
20
7.380173
0
VERTEX
8
1
10
8.842690
20
7.397354
0
VERTEX
8
1
10
8.771927
20
7.443840
0
VERTEX
8
1
10
8.779129
20
7.517395
0
VERTEX
8
1
10
8.702637
20
7.477287
0
VERTEX
8
1
10
8.618454
20
7.505554
0
VERTEX
8
1
10
8.641937
20
7.434265
0
VERTEX
8
1
10
8.582703
20
7.378204
0
VERTEX
8
1
10
8.673714
20
7.374260
0
VERTEX
8
1
10
8.721291
20
7.311325
0
SEQEND
0
POLYLINE
8
1
66
1
70
1
0
VERTEX
8
1
10
8.730698
20
8.186539
42
-0.015371
0
VERTEX
8
1
10
8.954742
20
7.862244
0
VERTEX
8
1
10
8.958046
20
7.859482
0
VERTEX
8
1
10
8.959007
20
7.861221
42
0.055546
0
VERTEX
8
1
10
8.866371
20
8.048035
42
0.089687
0
VERTEX
8
1
10
8.328499
20
8.698723
42
0.110160
0
VERTEX
8
1
10
7.973274
20
8.891663
42
0.114467
0
VERTEX
8
1
10
7.887321
20
8.900063
42
0.907901
0
VERTEX
8
1
10
7.888626
20
8.889183
0
VERTEX
8
1
10
7.894882
20
8.884811
0
VERTEX
8
1
10
7.903381
20
8.879860
0
VERTEX
8
1
10
7.920845
20
8.870941
42
-0.111297
0
VERTEX
8
1
10
8.560844
20
8.393997
42
-0.021737
0
SEQEND
0
POLYLINE
8
1
66
1
70
1
0
VERTEX
8
1
10
8.415390
20
8.666161
42
-0.043614
0
VERTEX
8
1
10
9.114288
20
8.425232
42
-0.034408
0
VERTEX
8
1
10
9.520103
20
8.190048
42
0.125509
0
VERTEX
8
1
10
9.558907
20
8.173965
0
VERTEX
8
1
10
9.561600
20
8.175781
0
VERTEX
8
1
10
9.562508
20
8.179352
42
0.134819
0
VERTEX
8
1
10
9.506630
20
8.254395
0
VERTEX
8
1
10
9.481438
20
8.276596
0
VERTEX
8
1
10
9.455276
20
8.297653
0
VERTEX
8
1
10
9.428192
20
8.317505
42
0.071312
0
VERTEX
8
1
10
8.856354
20
8.575264
42
0.044785
0
VERTEX
8
1
10
8.386780
20
8.681007
0
VERTEX
8
1
10
8.377502
20
8.680878
0
VERTEX
8
1
10
8.376633
20
8.680305
42
0.105547
0
SEQEND
0
POLYLINE
8
1
66
1
70
1
0
VERTEX
8
1
10
9.146957
20
6.401321
0
VERTEX
8
1
10
9.148148
20
6.401459
0
VERTEX
8
1
10
9.148148
20
6.184082
42
-0.019063
0
VERTEX
8
1
10
8.937141
20
6.183716
42
0.930386
0
VERTEX
8
1
10
8.938431
20
6.120911
0
VERTEX
8
1
10
9.181915
20
6.120949
42
0.393305
0
VERTEX
8
1
10
9.211143
20
6.152359
0
VERTEX
8
1
10
9.211151
20
6.673698
42
0.444902
0
VERTEX
8
1
10
9.178917
20
6.708168
0
VERTEX
8
1
10
8.929764
20
6.708160
42
1.005679
0
VERTEX
8
1
10
8.929871
20
6.645172
0
VERTEX
8
1
10
9.147736
20
6.645172
0
VERTEX
8
1
10
9.148148
20
6.640503
0
VERTEX
8
1
10
9.148155
20
6.460983
0
VERTEX
8
1
10
9.147514
20
6.458717
42
0.108888
0
VERTEX
8
1
10
9.134491
20
6.461632
0
VERTEX
8
1
10
8.985825
20
6.461632
42
1.004918
0
VERTEX
8
1
10
8.984879
20
6.398651
0
VERTEX
8
1
10
9.135521
20
6.398659
42
0.094087
0
SEQEND
0
POLYLINE
8
1
66
1
70
1
0
VERTEX
8
1
10
9.189003
20
8.108704
42
-0.058043
0
VERTEX
8
1
10
9.450073
20
7.719116
42
0.093301
0
VERTEX
8
1
10
9.492714
20
7.661964
42
0.584854
0
VERTEX
8
1
10
9.505295
20
7.680611
0
VERTEX
8
1
10
9.505058
20
7.693146
42
0.117591
0
VERTEX
8
1
10
9.409019
20
7.915535
42
0.110729
0
VERTEX
8
1
10
8.824821
20
8.457932
42
0.288270
0
VERTEX
8
1
10
8.818024
20
8.458839
42
0.075806
0
VERTEX
8
1
10
8.840431
20
8.436676
42
-0.043484
0
SEQEND
0
POLYLINE
8
1
66
1
70
1
0
VERTEX
8
1
10
9.243370
20
7.688805
42
-0.084114
0
VERTEX
8
1
10
9.393204
20
7.340172
42
0.156488
0
VERTEX
8
1
10
9.433708
20
7.270805
42
0.537661
0
VERTEX
8
1
10
9.457001
20
7.290810
0
VERTEX
8
1
10
9.459229
20
7.305008
42
0.112792
0
VERTEX
8
1
10
9.411942
20
7.478462
42
0.122309
0
VERTEX
8
1
10
9.227531
20
7.733299
42
0.303492
0
VERTEX
8
1
10
9.211876
20
7.739632
42
0.179913
0
VERTEX
8
1
10
9.217896
20
7.726494
0
SEQEND
0
POLYLINE
8
1
66
1
70
1
0
VERTEX
8
1
10
9.559189
20
6.138435
0
VERTEX
8
1
10
9.573021
20
6.143822
0
VERTEX
8
1
10
9.576721
20
6.145569
42
0.207079
0
VERTEX
8
1
10
9.698151
20
6.304192
42
0.146685
0
VERTEX
8
1
10
9.693169
20
6.529625
0
VERTEX
8
1
10
9.668297
20
6.577232
42
0.292592
0
VERTEX
8
1
10
9.354317
20
6.708893
42
0.820288
0
VERTEX
8
1
10
9.368034
20
6.648659
42
-0.237984
0
VERTEX
8
1
10
9.595444
20
6.570053
42
-0.215104
0
VERTEX
8
1
10
9.647881
20
6.382179
42
-0.211473
0
VERTEX
8
1
10
9.565712
20
6.213036
0
VERTEX
8
1
10
9.536835
20
6.197334
42
-0.094043
0
VERTEX
8
1
10
9.360809
20
6.186684
42
0.851432
0
VERTEX
8
1
10
9.363441
20
6.124550
42
0.114620
0
SEQEND
0
POLYLINE
8
1
66
1
70
1
0
VERTEX
8
1
10
9.710236
20
8.288864
0
VERTEX
8
1
10
9.702248
20
8.297546
42
0.064744
0
VERTEX
8
1
10
9.341286
20
8.544571
42
0.063185
0
VERTEX
8
1
10
8.224258
20
8.962822
42
0.071868
0
VERTEX
8
1
10
7.954979
20
8.992218
42
0.312745
0
VERTEX
8
1
10
7.939095
20
8.982285
0
VERTEX
8
1
10
7.942177
20
8.977386
0
VERTEX
8
1
10
7.949272
20
8.971886
0
VERTEX
8
1
10
7.960129
20
8.965828
42
0.035962
0
VERTEX
8
1
10
8.307442
20
8.859612
42
-0.055980
0
VERTEX
8
1
10
9.413017
20
8.451355
42
-0.012035
0
VERTEX
8
1
10
9.708267
20
8.281059
0
VERTEX
8
1
10
9.710182
20
8.280357
42
1.651047
0
VERTEX
8
1
10
9.713234
20
8.285049
0
VERTEX
8
1
10
9.711823
20
8.287025
0
SEQEND
0
POLYLINE
8
1
66
1
70
1
0
VERTEX
8
1
10
9.482323
20
8.883537
0
VERTEX
8
1
10
9.500694
20
8.824913
0
VERTEX
8
1
10
9.454361
20
8.778824
0
VERTEX
8
1
10
9.525551
20
8.775574
0
VERTEX
8
1
10
9.562775
20
8.723839
0
VERTEX
8
1
10
9.588402
20
8.780441
0
VERTEX
8
1
10
9.657738
20
8.794571
0
VERTEX
8
1
10
9.602379
20
8.832794
0
VERTEX
8
1
10
9.608017
20
8.893272
0
VERTEX
8
1
10
9.548172
20
8.860298
0
SEQEND
0
POLYLINE
8
1
66
1
70
1
0
VERTEX
8
1
10
9.715858
20
8.982857
42
0.073268
0
VERTEX
8
1
10
9.736206
20
8.984337
42
0.055929
0
VERTEX
8
1
10
9.635689
20
9.002846
0
VERTEX
8
1
10
9.337456
20
9.047722
42
0.034229
0
VERTEX
8
1
10
8.548248
20
9.127182
0
VERTEX
8
1
10
8.473915
20
9.127159
0
VERTEX
8
1
10
8.399605
20
9.125145
42
0.087085
0
VERTEX
8
1
10
8.012817
20
9.057404
42
0.226055
0
VERTEX
8
1
10
7.984909
20
9.037849
42
0.239760
0
VERTEX
8
1
10
8.015182
20
9.033401
42
-0.009428
0
VERTEX
8
1
10
8.454521
20
9.071472
42
-0.035778
0
VERTEX
8
1
10
9.133728
20
9.037514
0
VERTEX
8
1
10
9.426407
20
9.006126
42
0.019600
0
SEQEND
0
POLYLINE
8
1
66
1
70
1
0
VERTEX
8
1
10
8.908180
20
9.329079
42
-0.181587
0
VERTEX
8
1
10
9.618774
20
9.203598
42
0.041865
0
VERTEX
8
1
10
9.710449
20
9.156898
42
1.112229
0
VERTEX
8
1
10
9.712860
20
9.165115
42
0.103725
0
VERTEX
8
1
10
9.598625
20
9.250061
42
0.219267
0
VERTEX
8
1
10
8.766090
20
9.297409
0
VERTEX
8
1
10
8.763664
20
9.295509
0
VERTEX
8
1
10
8.766838
20
9.295578
42
-0.017308
0
SEQEND
0
POLYLINE
8
1
66
1
70
1
0
VERTEX
8
1
10
9.733200
20
9.659157
42
0.109933
0
VERTEX
8
1
10
9.766808
20
9.674088
0
VERTEX
8
1
10
9.765549
20
9.675957
42
0.045982
0
VERTEX
8
1
10
9.562775
20
9.655708
42
0.034724
0
VERTEX
8
1
10
8.511215
20
9.434692
42
0.041733
0
VERTEX
8
1
10
8.061783
20
9.267097
0
VERTEX
8
1
10
8.014275
20
9.241173
42
0.100165
0
VERTEX
8
1
10
7.869896
20
9.130936
0
VERTEX
8
1
10
7.864960
20
9.123405
42
0.714541
0
VERTEX
8
1
10
7.876564
20
9.100014
0
VERTEX
8
1
10
7.884079
20
9.099754
42
0.068397
0
VERTEX
8
1
10
8.047302
20
9.145515
0
VERTEX
8
1
10
8.068588
20
9.153458
0
VERTEX
8
1
10
8.116791
20
9.171928
42
-0.040813
0
VERTEX
8
1
10
9.110741
20
9.500221
42
0.009712
0
SEQEND
0
POLYLINE
8
1
66
1
70
1
0
VERTEX
8
1
10
9.923103
20
11.367584
42
0.981311
0
VERTEX
8
1
10
9.860626
20
11.366409
0
VERTEX
8
1
10
9.860649
20
6.365234
42
0.981461
0
VERTEX
8
1
10
9.923126
20
6.366402
0
SEQEND
0
POLYLINE
8
1
66
1
70
1
0
VERTEX
8
1
10
10.218658
20
10.075836
0
VERTEX
8
1
10
10.032181
20
9.927277
0
VERTEX
8
1
10
10.179062
20
9.871773
0
VERTEX
8
1
10
10.176041
20
9.631950
0
VERTEX
8
1
10
10.323395
20
9.823448
0
VERTEX
8
1
10
10.522011
20
9.785484
0
VERTEX
8
1
10
10.427025
20
9.975601
0
VERTEX
8
1
10
10.556229
20
10.169693
0
VERTEX
8
1
10
10.351982
20
10.156189
0
VERTEX
8
1
10
10.241989
20
10.296349
0
SEQEND
0
POLYLINE
8
1
66
1
70
1
0
VERTEX
8
1
10
12.662666
20
5.998108
0
VERTEX
8
1
10
13.487938
20
5.998108
42
0.054011
0
VERTEX
8
1
10
13.512947
20
6.181099
42
0.073732
0
SEQEND
0
POLYLINE
8
1
66
1
70
1
0
VERTEX
8
1
10
13.568260
20
6.384850
42
0.094698
0
VERTEX
8
1
10
13.565102
20
6.536835
0
VERTEX
8
1
10
13.534058
20
6.544922
0
VERTEX
8
1
10
13.416512
20
6.534019
42
0.036297
0
VERTEX
8
1
10
12.118683
20
6.279495
42
0.014991
0
VERTEX
8
1
10
11.312637
20
6.043800
42
0.044238
0
VERTEX
8
1
10
11.977585
20
6.020309
42
-0.043841
0
VERTEX
8
1
10
12.734573
20
6.228157
42
-0.016757
0
VERTEX
8
1
10
13.562958
20
6.364113
42
0.034236
0
SEQEND
0
POLYLINE
8
1
66
1
70
1
0
VERTEX
8
1
10
13.599586
20
6.838547
42
0.093868
0
VERTEX
8
1
10
13.614510
20
7.085693
0
VERTEX
8
1
10
13.549950
20
7.084991
0
VERTEX
8
1
10
13.392471
20
7.055801
42
0.035613
0
VERTEX
8
1
10
10.712242
20
6.318451
42
0.007633
0
VERTEX
8
1
10
10.136902
20
6.043854
42
0.031525
0
VERTEX
8
1
10
10.731377
20
6.074196
42
0.094000
0
VERTEX
8
1
10
10.878365
20
6.119156
0
VERTEX
8
1
10
10.993340
20
6.167091
0
VERTEX
8
1
10
11.113258
20
6.213379
42
-0.034264
0
VERTEX
8
1
10
12.474678
20
6.594078
42
-0.016269
0
VERTEX
8
1
10
13.587967
20
6.798737
42
0.023931
0
SEQEND
0
POLYLINE
8
1
66
1
70
1
0
VERTEX
8
1
10
13.503128
20
7.554352
0
VERTEX
8
1
10
13.636055
20
7.716774
0
VERTEX
8
1
10
13.437378
20
7.709190
0
VERTEX
8
1
10
13.331619
20
7.835129
0
VERTEX
8
1
10
13.299751
20
7.642067
0
VERTEX
8
1
10
13.113853
20
7.519737
0
VERTEX
8
1
10
13.253113
20
7.470276
0
VERTEX
8
1
10
13.241043
20
7.260460
0
VERTEX
8
1
10
13.395592
20
7.425621
0
VERTEX
8
1
10
13.589165
20
7.389656
0
SEQEND
0
POLYLINE
8
1
66
1
70
1
0
VERTEX
8
1
10
13.717697
20
10.535919
0
VERTEX
8
1
10
13.625267
20
10.695724
0
VERTEX
8
1
10
13.751564
20
10.854439
0
VERTEX
8
1
10
13.552193
20
10.848106
0
VERTEX
8
1
10
13.441124
20
10.971764
0
VERTEX
8
1
10
13.417740
20
10.783653
0
VERTEX
8
1
10
13.237625
20
10.665176
0
VERTEX
8
1
10
13.378571
20
10.616379
0
VERTEX
8
1
10
13.375542
20
10.409615
0
VERTEX
8
1
10
13.524368
20
10.571686
0
SEQEND
0
POLYLINE
8
1
66
1
70
1
0
VERTEX
8
1
10
13.923103
20
11.367584
42
0.981311
0
VERTEX
8
1
10
13.860626
20
11.366409
0
VERTEX
8
1
10
13.860649
20
6.365234
42
0.981461
0
VERTEX
8
1
10
13.923126
20
6.366402
0
SEQEND
0
POLYLINE
8
1
66
1
70
1
0
VERTEX
8
1
10
14.068039
20
9.247627
42
-0.046036
0
VERTEX
8
1
10
14.963150
20
9.149483
42
0.067308
0
VERTEX
8
1
10
15.150505
20
9.134720
42
0.570376
0
VERTEX
8
1
10
15.161667
20
9.145630
42
0.100711
0
VERTEX
8
1
10
15.043968
20
9.192459
42
0.079377
0
VERTEX
8
1
10
14.084648
20
9.267143
42
0.054779
0
VERTEX
8
1
10
14.010162
20
9.253242
0
VERTEX
8
1
10
14.011734
20
9.252060
42
0.044430
0
SEQEND
0
POLYLINE
8
1
66
1
70
1
0
VERTEX
8
1
10
14.320572
20
6.401321
0
VERTEX
8
1
10
14.321754
20
6.401459
0
VERTEX
8
1
10
14.321754
20
6.184082
42
-0.019063
0
VERTEX
8
1
10
14.110748
20
6.183716
42
0.930386
0
VERTEX
8
1
10
14.112038
20
6.120911
0
VERTEX
8
1
10
14.355530
20
6.120949
42
0.393305
0
VERTEX
8
1
10
14.384758
20
6.152359
0
VERTEX
8
1
10
14.384758
20
6.673698
42
0.445104
0
VERTEX
8
1
10
14.352531
20
6.708168
0
VERTEX
8
1
10
14.103378
20
6.708160
42
1.006197
0
VERTEX
8
1
10
14.103485
20
6.645172
0
VERTEX
8
1
10
14.321350
20
6.645172
0
VERTEX
8
1
10
14.321754
20
6.640503
0
VERTEX
8
1
10
14.321754
20
6.460983
0
VERTEX
8
1
10
14.321129
20
6.458717
42
0.108888
0
VERTEX
8
1
10
14.308105
20
6.461632
0
VERTEX
8
1
10
14.159431
20
6.461632
42
1.005010
0
VERTEX
8
1
10
14.158493
20
6.398651
0
VERTEX
8
1
10
14.309135
20
6.398659
42
0.094087
0
SEQEND
0
POLYLINE
8
1
66
1
70
1
0
VERTEX
8
1
10
14.452370
20
8.084373
42
-0.131492
0
VERTEX
8
1
10
14.802292
20
8.552223
42
0.070685
0
VERTEX
8
1
10
14.811584
20
8.563431
42
0.089857
0
VERTEX
8
1
10
14.701180
20
8.494881
42
0.189296
0
VERTEX
8
1
10
14.317200
20
7.828743
42
0.140493
0
VERTEX
8
1
10
14.329681
20
7.713364
0
VERTEX
8
1
10
14.334541
20
7.710266
42
0.294934
0
VERTEX
8
1
10
14.354408
20
7.736862
42
0.021072
0
VERTEX
8
1
10
14.405640
20
7.940048
42
-0.029643
0
SEQEND
0
POLYLINE
8
1
66
1
70
1
0
VERTEX
8
1
10
14.535919
20
8.049469
0
VERTEX
8
1
10
14.545341
20
8.007751
0
VERTEX
8
1
10
14.521568
20
7.974937
0
VERTEX
8
1
10
14.558090
20
7.972618
0
VERTEX
8
1
10
14.577187
20
7.935799
0
VERTEX
8
1
10
14.590340
20
7.976089
0
VERTEX
8
1
10
14.625900
20
7.986145
0
VERTEX
8
1
10
14.597504
20
8.013351
0
VERTEX
8
1
10
14.600395
20
8.056404
0
VERTEX
8
1
10
14.569702
20
8.032936
0
SEQEND
0
POLYLINE
8
1
66
1
70
1
0
VERTEX
8
1
10
14.455009
20
7.303413
0
VERTEX
8
1
10
14.401848
20
7.247360
0
VERTEX
8
1
10
14.483536
20
7.243416
0
VERTEX
8
1
10
14.526245
20
7.180481
0
VERTEX
8
1
10
14.555649
20
7.249329
0
VERTEX
8
1
10
14.635201
20
7.266510
0
VERTEX
8
1
10
14.571686
20
7.312996
0
VERTEX
8
1
10
14.578148
20
7.386536
0
VERTEX
8
1
10
14.509491
20
7.346443
0
VERTEX
8
1
10
14.433929
20
7.374702
0
SEQEND
0
POLYLINE
8
1
66
1
70
1
0
VERTEX
8
1
10
14.830818
20
6.697739
0
VERTEX
8
1
10
14.441673
20
6.697746
42
1.028648
0
VERTEX
8
1
10
14.440239
20
6.634750
0
VERTEX
8
1
10
14.608398
20
6.634758
0
VERTEX
8
1
10
14.609947
20
6.631561
0
VERTEX
8
1
10
14.609940
20
6.132690
42
1.036556
0
VERTEX
8
1
10
14.672958
20
6.132698
0
VERTEX
8
1
10
14.672951
20
6.631561
0
VERTEX
8
1
10
14.674400
20
6.634758
0
VERTEX
8
1
10
14.832253
20
6.634758
42
1.027908
0
SEQEND
0
POLYLINE
8
1
66
1
70
1
0
VERTEX
8
1
10
15.044487
20
6.697533
0
VERTEX
8
1
10
14.994415
20
6.701149
42
0.355453
0
VERTEX
8
1
10
14.961922
20
6.678604
0
VERTEX
8
1
10
14.798294
20
6.138771
42
0.968982
0
VERTEX
8
1
10
14.859093
20
6.122383
0
VERTEX
8
1
10
14.915657
20
6.308365
0
VERTEX
8
1
10
15.001556
20
6.308365
42
1.005345
0
VERTEX
8
1
10
15.003235
20
6.371330
0
VERTEX
8
1
10
14.934624
20
6.371483
0
VERTEX
8
1
10
15.014999
20
6.636505
0
VERTEX
8
1
10
15.016563
20
6.636398
0
VERTEX
8
1
10
15.162987
20
6.127258
42
1.032493
0
VERTEX
8
1
10
15.223526
20
6.144714
0
VERTEX
8
1
10
15.070419
20
6.676857
42
0.284032
0
SEQEND
0
POLYLINE
8
1
66
1
70
1
0
VERTEX
8
1
10
15.141739
20
7.213837
42
0.043039
0
VERTEX
8
1
10
15.491753
20
7.816887
42
0.030728
0
VERTEX
8
1
10
15.757957
20
8.455772
42
0.075291
0
VERTEX
8
1
10
15.801758
20
8.696854
42
0.181552
0
VERTEX
8
1
10
15.787170
20
8.749954
42
0.369195
0
VERTEX
8
1
10
15.758453
20
8.739670
42
0.079679
0
VERTEX
8
1
10
15.677101
20
8.596039
42
0.017916
0
VERTEX
8
1
10
15.538383
20
8.228600
42
-0.038877
0
VERTEX
8
1
10
15.115028
20
7.283386
42
-0.004736
0
VERTEX
8
1
10
14.943985
20
7.006088
42
1.297627
0
VERTEX
8
1
10
14.952271
20
7.002739
0
VERTEX
8
1
10
14.954140
20
7.003998
42
0.074054
0
SEQEND
0
POLYLINE
8
1
66
1
70
1
0
VERTEX
8
1
10
15.397934
20
6.301910
42
-0.210434
0
VERTEX
8
1
10
15.429840
20
6.347885
42
0.241227
0
VERTEX
8
1
10
15.435570
20
6.375931
0
VERTEX
8
1
10
15.437515
20
6.378052
0
VERTEX
8
1
10
15.447113
20
6.376549
42
0.329409
0
VERTEX
8
1
10
15.502541
20
6.390930
42
0.546418
0
VERTEX
8
1
10
15.476753
20
6.437271
42
-0.295591
0
VERTEX
8
1
10
15.384834
20
6.483841
0
VERTEX
8
1
10
15.376419
20
6.502777
0
VERTEX
8
1
10
15.368774
20
6.524574
42
-0.473633
0
VERTEX
8
1
10
15.431862
20
6.639954
0
VERTEX
8
1
10
15.444611
20
6.643120
0
VERTEX
8
1
10
15.457603
20
6.645081
0
VERTEX
8
1
10
15.564278
20
6.639786
0
VERTEX
8
1
10
15.564812
20
6.626495
0
VERTEX
8
1
10
15.564987
20
6.131676
42
0.948154
0
VERTEX
8
1
10
15.627815
20
6.135002
0
VERTEX
8
1
10
15.627808
20
6.668106
42
0.384220
0
VERTEX
8
1
10
15.601074
20
6.700867
0
VERTEX
8
1
10
15.453873
20
6.708023
0
VERTEX
8
1
10
15.421440
20
6.702339
42
0.502575
0
VERTEX
8
1
10
15.318100
20
6.479172
42
0.179066
0
VERTEX
8
1
10
15.386215
20
6.395325
42
0.206284
0
VERTEX
8
1
10
15.331238
20
6.290443
42
-0.034595
0
VERTEX
8
1
10
15.300392
20
6.150169
42
1.207344
0
VERTEX
8
1
10
15.350868
20
6.111115
42
0.068157
0
VERTEX
8
1
10
15.393600
20
6.280548
0
SEQEND
0
POLYLINE
8
1
66
1
70
1
0
VERTEX
8
1
10
15.968796
20
6.113922
0
VERTEX
8
1
10
16.026871
20
6.113922
42
0.414249
0
VERTEX
8
1
10
16.058365
20
6.145416
0
VERTEX
8
1
10
16.058365
20
6.676666
42
0.414249
0
VERTEX
8
1
10
16.026871
20
6.708160
0
VERTEX
8
1
10
15.967842
20
6.708160
42
1.000273
0
VERTEX
8
1
10
15.967842
20
6.645172
0
VERTEX
8
1
10
15.995369
20
6.645172
0
VERTEX
8
1
10
15.995369
20
6.176910
42
-0.119157
0
VERTEX
8
1
10
15.833527
20
6.198952
0
VERTEX
8
1
10
15.816971
20
6.211411
42
-0.129658
0
VERTEX
8
1
10
15.791359
20
6.305992
0
VERTEX
8
1
10
15.793518
20
6.311470
0
VERTEX
8
1
10
15.796829
20
6.315720
42
1.083816
0
VERTEX
8
1
10
15.759598
20
6.367043
42
0.318626
0
VERTEX
8
1
10
15.732895
20
6.259048
42
0.174998
0
VERTEX
8
1
10
15.783203
20
6.157410
0
VERTEX
8
1
10
15.809570
20
6.140686
42
0.113212
0
SEQEND
0
POLYLINE
8
1
66
1
70
1
0
VERTEX
8
1
10
16.109741
20
7.605759
42
0.138000
0
VERTEX
8
1
10
16.148979
20
8.066360
42
0.072717
0
VERTEX
8
1
10
16.067360
20
8.343727
42
0.134782
0
VERTEX
8
1
10
15.990044
20
8.437462
42
0.683144
0
VERTEX
8
1
10
15.968216
20
8.424538
42
0.096323
0
VERTEX
8
1
10
15.997795
20
8.270035
0
VERTEX
8
1
10
16.006454
20
8.243095
42
-0.096393
0
VERTEX
8
1
10
16.086510
20
7.749016
42
-0.075706
0
VERTEX
8
1
10
16.020607
20
7.483376
42
1.197578
0
VERTEX
8
1
10
16.025436
20
7.476936
42
0.114510
0
SEQEND
0
POLYLINE
8
1
66
1
70
1
0
VERTEX
8
1
10
16.396957
20
6.401321
0
VERTEX
8
1
10
16.398148
20
6.401459
0
VERTEX
8
1
10
16.398155
20
6.184082
42
-0.019038
0
VERTEX
8
1
10
16.187141
20
6.183716
42
0.930386
0
VERTEX
8
1
10
16.188431
20
6.120911
0
VERTEX
8
1
10
16.431923
20
6.120949
42
0.393484
0
VERTEX
8
1
10
16.461143
20
6.152359
0
VERTEX
8
1
10
16.461143
20
6.673698
42
0.445118
0
VERTEX
8
1
10
16.428917
20
6.708168
0
VERTEX
8
1
10
16.179764
20
6.708160
42
1.005892
0
VERTEX
8
1
10
16.179871
20
6.645172
0
VERTEX
8
1
10
16.397743
20
6.645172
0
VERTEX
8
1
10
16.398148
20
6.640503
0
VERTEX
8
1
10
16.398155
20
6.460983
0
VERTEX
8
1
10
16.397514
20
6.458717
42
0.108879
0
VERTEX
8
1
10
16.384491
20
6.461632
0
VERTEX
8
1
10
16.235825
20
6.461632
42
1.005040
0
VERTEX
8
1
10
16.234871
20
6.398651
0
VERTEX
8
1
10
16.385521
20
6.398659
42
0.095349
0
SEQEND
0
POLYLINE
8
1
66
1
70
1
0
VERTEX
8
1
10
16.501320
20
8.015228
0
VERTEX
8
1
10
16.496674
20
8.035400
42
0.126790
0
VERTEX
8
1
10
16.167717
20
8.568718
42
0.111613
0
VERTEX
8
1
10
15.950478
20
8.705490
42
1.421068
0
VERTEX
8
1
10
15.947075
20
8.698364
0
VERTEX
8
1
10
15.952652
20
8.692894
42
-0.125747
0
VERTEX
8
1
10
16.304977
20
8.249199
42
-0.021331
0
VERTEX
8
1
10
16.411377
20
7.972855
42
0.118587
0
VERTEX
8
1
10
16.468910
20
7.877968
42
0.583370
0
VERTEX
8
1
10
16.500671
20
7.891785
42
0.143204
0
SEQEND
0
POLYLINE
8
1
66
1
70
1
0
VERTEX
8
1
10
16.748840
20
6.700974
0
VERTEX
8
1
10
16.748840
20
6.183853
0
VERTEX
8
1
10
16.551170
20
6.183853
42
1.000303
0
VERTEX
8
1
10
16.551170
20
6.120865
0
VERTEX
8
1
10
16.780342
20
6.120865
42
0.414072
0
VERTEX
8
1
10
16.811844
20
6.152359
0
VERTEX
8
1
10
16.811844
20
6.700974
42
0.999788
0
SEQEND
0
POLYLINE
8
1
66
1
70
1
0
VERTEX
8
1
10
16.747345
20
7.380173
0
VERTEX
8
1
10
16.835976
20
7.397354
0
VERTEX
8
1
10
16.765213
20
7.443840
0
VERTEX
8
1
10
16.772415
20
7.517395
0
VERTEX
8
1
10
16.695930
20
7.477287
0
VERTEX
8
1
10
16.611748
20
7.505554
0
VERTEX
8
1
10
16.635223
20
7.434265
0
VERTEX
8
1
10
16.575996
20
7.378204
0
VERTEX
8
1
10
16.667007
20
7.374260
0
VERTEX
8
1
10
16.714584
20
7.311325
0
SEQEND
0
POLYLINE
8
1
66
1
70
1
0
VERTEX
8
1
10
16.723984
20
8.186539
42
-0.013681
0
VERTEX
8
1
10
16.948029
20
7.862244
0
VERTEX
8
1
10
16.951332
20
7.859482
0
VERTEX
8
1
10
16.952293
20
7.861221
42
0.055628
0
VERTEX
8
1
10
16.859657
20
8.048035
42
0.089691
0
VERTEX
8
1
10
16.321793
20
8.698723
42
0.106527
0
VERTEX
8
1
10
15.967949
20
8.891464
42
0.126165
0
VERTEX
8
1
10
15.880783
20
8.900139
42
0.913560
0
VERTEX
8
1
10
15.881920
20
8.889183
0
VERTEX
8
1
10
15.888176
20
8.884811
0
VERTEX
8
1
10
15.896667
20
8.879860
0
VERTEX
8
1
10
15.914131
20
8.870949
42
-0.111282
0
VERTEX
8
1
10
16.554138
20
8.393997
42
-0.021759
0
SEQEND
0
POLYLINE
8
1
66
1
70
1
0
VERTEX
8
1
10
17.475616
20
8.883537
0
VERTEX
8
1
10
17.493980
20
8.824913
0
VERTEX
8
1
10
17.447647
20
8.778824
0
VERTEX
8
1
10
17.518845
20
8.775574
0
VERTEX
8
1
10
17.556068
20
8.723839
0
VERTEX
8
1
10
17.581696
20
8.780441
0
VERTEX
8
1
10
17.651031
20
8.794571
0
VERTEX
8
1
10
17.595673
20
8.832794
0
VERTEX
8
1
10
17.601311
20
8.893272
0
VERTEX
8
1
10
17.541466
20
8.860298
0
SEQEND
0
POLYLINE
8
1
66
1
70
1
0
VERTEX
8
1
10
17.471962
20
8.464554
42
0.056896
0
VERTEX
8
1
10
16.629776
20
8.845123
42
0.046748
0
VERTEX
8
1
10
16.078407
20
8.986893
42
0.107852
0
VERTEX
8
1
10
15.934647
20
8.987556
0
VERTEX
8
1
10
15.932266
20
8.983612
0
VERTEX
8
1
10
15.934135
20
8.978889
0
VERTEX
8
1
10
15.940079
20
8.973557
0
VERTEX
8
1
10
15.949852
20
8.967674
42
0.040718
0
VERTEX
8
1
10
16.249825
20
8.873161
42
-0.050375
0
VERTEX
8
1
10
17.315781
20
8.496925
42
-0.022598
0
VERTEX
8
1
10
17.698357
20
8.282646
42
0.714489
0
VERTEX
8
1
10
17.707939
20
8.282593
42
0.077193
0
VERTEX
8
1
10
17.608559
20
8.371277
42
0.022690
0
SEQEND
0
POLYLINE
8
1
66
1
70
1
0
VERTEX
8
1
10
17.531441
20
8.180023
42
0.366145
0
VERTEX
8
1
10
17.555634
20
8.177612
0
VERTEX
8
1
10
17.555504
20
8.182129
42
0.117613
0
VERTEX
8
1
10
17.491882
20
8.261818
42
0.072491
0
VERTEX
8
1
10
17.168129
20
8.455643
42
0.069098
0
VERTEX
8
1
10
16.382195
20
8.680855
42
0.348187
0
VERTEX
8
1
10
16.370033
20
8.679848
42
0.064080
0
VERTEX
8
1
10
16.404594
20
8.667389
0
VERTEX
8
1
10
16.534195
20
8.631531
42
-0.063312
0
VERTEX
8
1
10
17.285103
20
8.332359
0
VERTEX
8
1
10
17.325371
20
8.308380
42
0.021135
0
SEQEND
0
POLYLINE
8
1
66
1
70
1
0
VERTEX
8
1
10
17.465775
20
7.683372
42
0.229397
0
VERTEX
8
1
10
17.490463
20
7.661339
0
VERTEX
8
1
10
17.494446
20
7.664040
0
VERTEX
8
1
10
17.497169
20
7.670212
0
VERTEX
8
1
10
17.498528
20
7.679581
0
VERTEX
8
1
10
17.498444
20
7.691849
42
0.122253
0
VERTEX
8
1
10
17.413582
20
7.898170
42
0.113939
0
VERTEX
8
1
10
16.818298
20
8.457832
42
0.162796
0
VERTEX
8
1
10
16.811295
20
8.458969
42
0.080947
0
VERTEX
8
1
10
16.833191
20
8.437134
0
VERTEX
8
1
10
16.903862
20
8.378151
42
-0.103717
0
VERTEX
8
1
10
17.427864
20
7.745796
42
0.016500
0
SEQEND
0
POLYLINE
8
1
66
1
70
1
0
VERTEX
8
1
10
17.146957
20
6.401321
0
VERTEX
8
1
10
17.148148
20
6.401459
0
VERTEX
8
1
10
17.148148
20
6.184082
42
-0.019063
0
VERTEX
8
1
10
16.937141
20
6.183716
42
0.930386
0
VERTEX
8
1
10
16.938431
20
6.120911
0
VERTEX
8
1
10
17.181923
20
6.120949
42
0.392991
0
VERTEX
8
1
10
17.211143
20
6.152359
0
VERTEX
8
1
10
17.211143
20
6.673698
42
0.445118
0
VERTEX
8
1
10
17.178917
20
6.708168
0
VERTEX
8
1
10
16.929756
20
6.708160
42
1.005770
0
VERTEX
8
1
10
16.929871
20
6.645172
0
VERTEX
8
1
10
17.147736
20
6.645172
0
VERTEX
8
1
10
17.148148
20
6.640503
0
VERTEX
8
1
10
17.148140
20
6.460983
0
VERTEX
8
1
10
17.147514
20
6.458717
42
0.108879
0
VERTEX
8
1
10
17.134491
20
6.461632
0
VERTEX
8
1
10
16.985817
20
6.461632
42
1.005040
0
VERTEX
8
1
10
16.984879
20
6.398651
0
VERTEX
8
1
10
17.135521
20
6.398659
42
0.095349
0
SEQEND
0
POLYLINE
8
1
66
1
70
1
0
VERTEX
8
1
10
17.236664
20
7.688805
42
-0.085737
0
VERTEX
8
1
10
17.387917
20
7.335533
42
0.150710
0
VERTEX
8
1
10
17.427010
20
7.270805
42
0.537648
0
VERTEX
8
1
10
17.450294
20
7.290810
0
VERTEX
8
1
10
17.452515
20
7.305008
42
0.113083
0
VERTEX
8
1
10
17.404984
20
7.479034
42
0.121228
0
VERTEX
8
1
10
17.220818
20
7.733299
42
0.303492
0
VERTEX
8
1
10
17.205162
20
7.739632
42
0.178530
0
VERTEX
8
1
10
17.211189
20
7.726494
0
SEQEND
0
POLYLINE
8
1
66
1
70
1
0
VERTEX
8
1
10
17.559189
20
6.138435
0
VERTEX
8
1
10
17.573021
20
6.143822
0
VERTEX
8
1
10
17.576721
20
6.145569
42
0.207079
0
VERTEX
8
1
10
17.698151
20
6.304192
42
0.146755
0
VERTEX
8
1
10
17.693169
20
6.529625
0
VERTEX
8
1
10
17.668297
20
6.577232
42
0.292617
0
VERTEX
8
1
10
17.354317
20
6.708893
42
0.820518
0
VERTEX
8
1
10
17.368050
20
6.648659
42
-0.237978
0
VERTEX
8
1
10
17.595436
20
6.570053
42
-0.215096
0
VERTEX
8
1
10
17.647888
20
6.382179
42
-0.211528
0
VERTEX
8
1
10
17.565704
20
6.213036
0
VERTEX
8
1
10
17.536835
20
6.197334
42
-0.094043
0
VERTEX
8
1
10
17.360809
20
6.186684
42
0.851432
0
VERTEX
8
1
10
17.363441
20
6.124550
42
0.113953
0
SEQEND
0
POLYLINE
8
1
66
1
70
1
0
VERTEX
8
1
10
17.709152
20
8.982857
42
0.073261
0
VERTEX
8
1
10
17.729500
20
8.984337
42
0.055988
0
VERTEX
8
1
10
17.628983
20
9.002846
0
VERTEX
8
1
10
17.330742
20
9.047722
42
0.034229
0
VERTEX
8
1
10
16.541534
20
9.127182
0
VERTEX
8
1
10
16.467201
20
9.127159
0
VERTEX
8
1
10
16.392899
20
9.125137
42
0.086994
0
VERTEX
8
1
10
16.006111
20
9.057404
42
0.230057
0
VERTEX
8
1
10
15.978218
20
9.037804
42
0.237487
0
VERTEX
8
1
10
16.008476
20
9.033401
0
VERTEX
8
1
10
16.017670
20
9.033890
42
-0.009262
0
VERTEX
8
1
10
16.447815
20
9.071472
42
-0.035778
0
VERTEX
8
1
10
17.127022
20
9.037514
0
VERTEX
8
1
10
17.419693
20
9.006126
42
0.019602
0
SEQEND
0
POLYLINE
8
1
66
1
70
1
0
VERTEX
8
1
10
16.901466
20
9.329079
42
-0.181600
0
VERTEX
8
1
10
17.612061
20
9.203590
42
0.041795
0
VERTEX
8
1
10
17.703743
20
9.156898
42
1.111421
0
VERTEX
8
1
10
17.706161
20
9.165115
0
VERTEX
8
1
10
17.702072
20
9.170464
42
0.104272
0
VERTEX
8
1
10
17.515099
20
9.286179
42
0.198727
0
VERTEX
8
1
10
16.759384
20
9.297409
0
VERTEX
8
1
10
16.756958
20
9.295509
0
VERTEX
8
1
10
16.760132
20
9.295578
42
-0.017330
0
SEQEND
0
POLYLINE
8
1
66
1
70
1
0
VERTEX
8
1
10
17.726494
20
9.659157
42
0.110359
0
VERTEX
8
1
10
17.760094
20
9.674088
0
VERTEX
8
1
10
17.758835
20
9.675957
42
0.045984
0
VERTEX
8
1
10
17.556076
20
9.655708
42
0.034720
0
VERTEX
8
1
10
16.504501
20
9.434700
42
0.041727
0
VERTEX
8
1
10
16.055077
20
9.267097
0
VERTEX
8
1
10
16.007568
20
9.241180
42
0.100578
0
VERTEX
8
1
10
15.863190
20
9.130936
0
VERTEX
8
1
10
15.858253
20
9.123405
42
0.778888
0
VERTEX
8
1
10
15.875641
20
9.099602
42
0.084295
0
VERTEX
8
1
10
16.010948
20
9.134903
42
0.007520
0
VERTEX
8
1
10
16.410797
20
9.290359
42
-0.028534
0
VERTEX
8
1
10
17.341103
20
9.559464
42
0.015300
0
SEQEND
0
ENDSEC
0
EOF
