0
SECTION
2
HEADER
9
$EXTMIN
10
0.509056
20
0.305344
9
$EXTMAX
10
19.853149
20
11.839096
0
ENDSEC
0
SECTION
2
TABLES
0
TABLE
2
LTYPE
70
1
0
LTYPE
2
0
70
0
3
Solid Line
72
65
73
0
40
0.0
0
ENDTAB
0
TABLE
2
LAYER
70
1
0
LAYER
2
1
70
0
62
7
6
0
0
ENDTAB
0
ENDSEC
0
SECTION
2
BLOCKS
0
ENDSEC
0
SECTION
2
ENTITIES
0
POLYLINE
8
1
66
1
70
1
0
VERTEX
8
1
10
19.714081
20
8.226608
0
VERTEX
8
1
10
19.853149
20
8.506866
42
0.253317
0
VERTEX
8
1
10
19.732552
20
8.644531
42
0.028833
0
VERTEX
8
1
10
19.578033
20
8.651947
0
VERTEX
8
1
10
19.564552
20
8.746536
42
0.085221
0
VERTEX
8
1
10
19.737198
20
9.049835
42
0.403307
0
VERTEX
8
1
10
19.617744
20
9.504013
0
VERTEX
8
1
10
19.592659
20
9.527863
42
0.258100
0
VERTEX
8
1
10
19.548157
20
9.756210
42
0.274603
0
VERTEX
8
1
10
19.253769
20
9.963425
42
-0.005911
0
VERTEX
8
1
10
16.267044
20
10.105194
0
VERTEX
8
1
10
14.601555
20
11.374329
42
0.058311
0
VERTEX
8
1
10
14.345528
20
11.557098
42
0.071326
0
VERTEX
8
1
10
13.799553
20
11.688568
42
0.064512
0
VERTEX
8
1
10
7.971046
20
11.609665
42
0.230721
0
VERTEX
8
1
10
7.668587
20
11.369293
0
VERTEX
8
1
10
7.665916
20
11.352005
0
VERTEX
8
1
10
6.578346
20
10.344910
0
VERTEX
8
1
10
6.350983
20
10.288803
0
VERTEX
8
1
10
6.231644
20
10.180847
42
0.017993
0
VERTEX
8
1
10
2.736084
20
9.935486
0
VERTEX
8
1
10
2.487427
20
9.901505
0
VERTEX
8
1
10
2.258308
20
9.864944
0
VERTEX
8
1
10
1.501678
20
9.778671
42
0.039401
0
VERTEX
8
1
10
1.297180
20
9.728317
42
0.122109
0
VERTEX
8
1
10
0.932213
20
9.394333
42
0.230239
0
VERTEX
8
1
10
0.869423
20
9.226715
0
VERTEX
8
1
10
1.053917
20
8.912399
42
0.113061
0
VERTEX
8
1
10
1.224747
20
8.440704
42
0.130361
0
VERTEX
8
1
10
1.295326
20
8.392700
42
0.112900
0
VERTEX
8
1
10
1.120872
20
8.318253
42
-0.326955
0
VERTEX
8
1
10
0.986877
20
8.281357
42
0.356863
0
VERTEX
8
1
10
0.763809
20
8.147522
42
0.106278
0
VERTEX
8
1
10
0.820343
20
7.838257
42
0.188232
0
VERTEX
8
1
10
1.041100
20
7.498734
0
VERTEX
8
1
10
1.504974
20
7.512924
42
0.322090
0
VERTEX
8
1
10
1.592484
20
7.479721
42
-0.217105
0
VERTEX
8
1
10
1.958427
20
7.349365
42
0.069808
0
VERTEX
8
1
10
2.260872
20
7.281601
0
VERTEX
8
1
10
2.279480
20
7.249069
42
0.223002
0
VERTEX
8
1
10
2.666489
20
6.575928
42
0.189417
0
VERTEX
8
1
10
3.575211
20
6.325897
42
0.069433
0
VERTEX
8
1
10
4.187881
20
6.458359
42
0.180689
0
VERTEX
8
1
10
4.607849
20
6.854416
0
VERTEX
8
1
10
4.915588
20
6.838135
42
0.270647
0
VERTEX
8
1
10
5.806023
20
6.248871
42
0.294026
0
VERTEX
8
1
10
7.294838
20
6.763382
0
VERTEX
8
1
10
8.808640
20
6.813248
0
VERTEX
8
1
10
8.818245
20
6.815720
42
-0.075251
0
VERTEX
8
1
10
8.866531
20
6.793167
0
VERTEX
8
1
10
11.250542
20
6.873917
0
VERTEX
8
1
10
11.290863
20
6.841660
0
VERTEX
8
1
10
12.137169
20
6.883408
42
0.387021
0
VERTEX
8
1
10
12.216621
20
6.830124
42
0.211590
0
VERTEX
8
1
10
13.076508
20
6.417282
42
0.294136
0
VERTEX
8
1
10
14.158966
20
6.993362
42
-0.130047
0
VERTEX
8
1
10
14.363258
20
6.916260
42
0.156731
0
VERTEX
8
1
10
14.675117
20
7.077866
0
VERTEX
8
1
10
14.787773
20
7.087265
42
0.096782
0
VERTEX
8
1
10
14.938431
20
7.246780
42
0.075935
0
VERTEX
8
1
10
15.154343
20
6.786194
42
0.224221
0
VERTEX
8
1
10
15.966331
20
6.332733
0
VERTEX
8
1
10
16.150833
20
6.346466
42
0.231186
0
VERTEX
8
1
10
17.073952
20
6.704407
42
0.155173
0
VERTEX
8
1
10
17.396675
20
7.596329
42
0.064351
0
VERTEX
8
1
10
17.721375
20
7.679703
0
VERTEX
8
1
10
17.794296
20
7.646942
0
VERTEX
8
1
10
19.025963
20
7.796509
42
-0.276081
0
VERTEX
8
1
10
19.084938
20
7.777390
0
VERTEX
8
1
10
19.181915
20
7.785889
42
0.305010
0
VERTEX
8
1
10
19.391685
20
7.901962
0
VERTEX
8
1
10
19.587029
20
7.901962
42
0.066496
0
VERTEX
8
1
10
19.715904
20
8.099670
0
SEQEND
0
POLYLINE
8
1
66
1
70
1
0
VERTEX
8
1
10
8.579376
20
11.649231
42
-0.031424
0
VERTEX
8
1
10
10.765427
20
11.789246
42
-0.018503
0
VERTEX
8
1
10
13.366463
20
11.630402
42
0.002866
0
VERTEX
8
1
10
10.444084
20
11.711990
42
0.107835
0
VERTEX
8
1
10
10.195808
20
11.692871
0
VERTEX
8
1
10
10.194412
20
11.689621
42
0.071245
0
VERTEX
8
1
10
10.436424
20
11.646439
0
VERTEX
8
1
10
13.240158
20
11.579346
42
-0.159614
0
VERTEX
8
1
10
13.969765
20
11.383911
0
VERTEX
8
1
10
14.061081
20
11.330566
42
-0.044974
0
VERTEX
8
1
10
15.478371
20
10.200150
0
VERTEX
8
1
10
15.971863
20
10.180130
42
-0.069873
0
VERTEX
8
1
10
16.089157
20
10.088776
42
-0.013099
0
VERTEX
8
1
10
15.453102
20
10.109894
0
VERTEX
8
1
10
14.222450
20
11.079971
42
0.137244
0
VERTEX
8
1
10
13.422653
20
11.499008
0
VERTEX
8
1
10
13.359566
20
11.506256
42
0.021094
0
VERTEX
8
1
10
10.673431
20
11.532425
42
0.245308
0
VERTEX
8
1
10
10.546295
20
11.447586
42
0.020339
0
VERTEX
8
1
10
9.534836
20
10.108597
0
VERTEX
8
1
10
9.513100
20
10.105591
42
-0.018120
0
VERTEX
8
1
10
7.821297
20
10.229538
42
-0.004201
0
VERTEX
8
1
10
9.397675
20
10.221451
42
-0.008876
0
VERTEX
8
1
10
10.093430
20
11.184784
42
0.173628
0
VERTEX
8
1
10
10.194557
20
11.343735
42
0.388425
0
VERTEX
8
1
10
10.115875
20
11.361877
0
VERTEX
8
1
10
10.148712
20
11.475906
0
VERTEX
8
1
10
10.140671
20
11.492340
42
0.100035
0
VERTEX
8
1
10
9.648598
20
11.599670
42
0.040225
0
VERTEX
8
1
10
8.065964
20
11.514603
42
-0.070316
0
SEQEND
0
POLYLINE
8
1
66
1
70
1
0
VERTEX
8
1
10
13.784752
20
11.206116
42
-0.015844
0
VERTEX
8
1
10
15.026848
20
10.263092
0
VERTEX
8
1
10
14.990425
20
10.265747
42
0.012478
0
VERTEX
8
1
10
13.042130
20
10.165970
0
VERTEX
8
1
10
12.921242
20
10.257675
0
VERTEX
8
1
10
12.818535
20
11.346237
42
-0.171173
0
SEQEND
0
POLYLINE
8
1
66
1
70
1
0
VERTEX
8
1
10
12.747856
20
10.425858
42
0.004657
0
VERTEX
8
1
10
11.943512
20
11.179764
42
-0.013599
0
VERTEX
8
1
10
12.638039
20
11.331879
0
SEQEND
0
POLYLINE
8
1
66
1
70
1
0
VERTEX
8
1
10
11.175911
20
10.975433
0
VERTEX
8
1
10
12.065140
20
10.168930
0
VERTEX
8
1
10
10.735176
20
10.179764
0
VERTEX
8
1
10
10.652306
20
11.188065
42
-0.130066
0
SEQEND
0
POLYLINE
8
1
66
1
70
1
0
VERTEX
8
1
10
10.628700
20
10.207535
0
VERTEX
8
1
10
10.350922
20
10.207535
0
VERTEX
8
1
10
10.434258
20
11.087158
0
VERTEX
8
1
10
10.545364
20
11.226044
0
SEQEND
0
POLYLINE
8
1
66
1
70
1
0
VERTEX
8
1
10
9.768288
20
10.271255
42
-0.019084
0
VERTEX
8
1
10
10.276848
20
10.920486
0
VERTEX
8
1
10
10.193573
20
10.221909
0
VERTEX
8
1
10
9.846748
20
10.208420
42
-0.582584
0
SEQEND
0
POLYLINE
8
1
66
1
70
1
0
VERTEX
8
1
10
7.925781
20
10.388107
0
VERTEX
8
1
10
8.007820
20
11.312881
42
-0.011540
0
VERTEX
8
1
10
9.989342
20
11.253174
0
VERTEX
8
1
10
9.314377
20
10.310043
0
VERTEX
8
1
10
8.670013
20
10.296585
0
VERTEX
8
1
10
8.668457
20
10.348953
0
SEQEND
0
POLYLINE
8
1
66
1
70
1
0
VERTEX
8
1
10
6.933090
20
10.389130
0
VERTEX
8
1
10
7.860176
20
11.244583
0
VERTEX
8
1
10
7.775978
20
10.314133
0
VERTEX
8
1
10
7.707687
20
10.310959
0
VERTEX
8
1
10
7.705437
20
10.348297
0
SEQEND
0
POLYLINE
8
1
66
1
70
1
0
VERTEX
8
1
10
3.758278
20
9.527878
42
-0.215384
0
VERTEX
8
1
10
4.341164
20
9.896500
42
-0.044874
0
VERTEX
8
1
10
4.927658
20
9.954590
42
-0.013467
0
VERTEX
8
1
10
9.100883
20
10.027725
0
VERTEX
8
1
10
9.134613
20
9.661819
0
VERTEX
8
1
10
4.870712
20
9.656479
42
0.077297
0
VERTEX
8
1
10
4.300919
20
9.610138
42
0.200167
0
VERTEX
8
1
10
4.196350
20
9.512390
0
SEQEND
0
POLYLINE
8
1
66
1
70
1
0
VERTEX
8
1
10
3.520180
20
8.923828
42
-0.241896
0
VERTEX
8
1
10
3.629494
20
9.218491
0
VERTEX
8
1
10
3.645844
20
9.225540
0
VERTEX
8
1
10
3.712959
20
8.987839
42
0.411750
0
VERTEX
8
1
10
3.750038
20
8.726379
42
-0.566854
0
VERTEX
8
1
10
3.769821
20
8.702469
42
-0.458424
0
VERTEX
8
1
10
3.670815
20
8.492279
42
-0.245255
0
VERTEX
8
1
10
3.611092
20
8.524460
42
-0.151255
0
SEQEND
0
POLYLINE
8
1
66
1
70
1
0
VERTEX
8
1
10
1.237663
20
9.397003
0
VERTEX
8
1
10
2.082405
20
9.540863
0
VERTEX
8
1
10
3.441620
20
9.512451
42
0.187067
0
VERTEX
8
1
10
3.319542
20
9.376816
42
0.022157
0
VERTEX
8
1
10
2.228294
20
9.372253
0
VERTEX
8
1
10
2.193390
20
9.365097
0
VERTEX
8
1
10
2.175484
20
9.340958
0
VERTEX
8
1
10
2.175644
20
9.186264
42
0.075966
0
VERTEX
8
1
10
2.424500
20
8.527832
0
VERTEX
8
1
10
3.368805
20
8.513107
0
VERTEX
8
1
10
3.405151
20
8.419342
0
VERTEX
8
1
10
1.665733
20
8.401978
0
VERTEX
8
1
10
1.726540
20
8.493195
0
VERTEX
8
1
10
2.297592
20
8.513031
0
VERTEX
8
1
10
2.209076
20
8.726089
42
-0.115971
0
VERTEX
8
1
10
2.041206
20
9.368942
0
VERTEX
8
1
10
1.305130
20
9.263168
0
SEQEND
0
POLYLINE
8
1
66
1
70
1
0
VERTEX
8
1
10
1.341499
20
8.478409
0
VERTEX
8
1
10
1.297951
20
8.512848
42
-0.287674
0
VERTEX
8
1
10
1.259560
20
9.144760
0
VERTEX
8
1
10
1.270401
20
9.152115
42
-0.126260
0
VERTEX
8
1
10
1.368141
20
8.913773
42
0.358272
0
VERTEX
8
1
10
1.403900
20
8.669800
0
VERTEX
8
1
10
1.402161
20
8.474304
42
-0.357081
0
SEQEND
0
POLYLINE
8
1
66
1
70
1
0
VERTEX
8
1
10
1.142586
20
7.744568
0
VERTEX
8
1
10
1.045357
20
8.017715
0
VERTEX
8
1
10
1.179626
20
8.022339
0
VERTEX
8
1
10
1.267586
20
7.753830
0
SEQEND
0
POLYLINE
8
1
66
1
70
1
0
VERTEX
8
1
10
1.901848
20
7.605667
0
VERTEX
8
1
10
1.762955
20
8.064011
0
VERTEX
8
1
10
2.082405
20
7.675125
0
VERTEX
8
1
10
2.355537
20
7.772339
0
VERTEX
8
1
10
2.415733
20
7.610306
0
SEQEND
0
POLYLINE
8
1
66
1
70
1
0
VERTEX
8
1
10
3.397789
20
7.749191
0
VERTEX
8
1
10
3.304626
20
8.022339
0
VERTEX
8
1
10
3.433289
20
8.026962
0
VERTEX
8
1
10
3.517586
20
7.758453
0
SEQEND
0
POLYLINE
8
1
66
1
70
1
0
VERTEX
8
1
10
4.243584
20
8.317673
42
-0.642385
0
VERTEX
8
1
10
4.389168
20
8.166245
0
VERTEX
8
1
10
3.761589
20
8.139557
42
0.502158
0
VERTEX
8
1
10
3.648392
20
8.057327
42
0.078456
0
VERTEX
8
1
10
3.727425
20
7.480347
42
-0.224658
0
VERTEX
8
1
10
3.564163
20
7.656158
42
-0.075126
0
VERTEX
8
1
10
3.453163
20
8.138214
0
VERTEX
8
1
10
0.879990
20
8.096436
42
-0.390664
0
VERTEX
8
1
10
1.062691
20
8.211563
0
VERTEX
8
1
10
1.070549
20
8.213928
42
-0.170993
0
VERTEX
8
1
10
1.216461
20
8.261124
42
-0.037453
0
VERTEX
8
1
10
2.068939
20
8.287827
42
0.032744
0
VERTEX
8
1
10
2.863129
20
8.321609
0
SEQEND
0
POLYLINE
8
1
66
1
70
1
0
VERTEX
8
1
10
7.644791
20
8.339752
42
-0.223503
0
VERTEX
8
1
10
7.721291
20
8.082535
42
0.222031
0
VERTEX
8
1
10
6.564438
20
8.786316
42
0.316763
0
VERTEX
8
1
10
5.403603
20
8.280350
0
VERTEX
8
1
10
5.356590
20
8.341980
42
-0.203499
0
VERTEX
8
1
10
5.497643
20
8.632156
42
-0.266847
0
VERTEX
8
1
10
6.930275
20
8.933517
42
-0.147806
0
SEQEND
0
POLYLINE
8
1
66
1
70
1
0
VERTEX
8
1
10
9.152039
20
9.233139
0
VERTEX
8
1
10
4.672523
20
9.255859
42
-0.124239
0
VERTEX
8
1
10
4.134697
20
9.339218
42
-0.093540
0
VERTEX
8
1
10
4.467468
20
9.417465
0
VERTEX
8
1
10
9.147545
20
9.417465
0
SEQEND
0
POLYLINE
8
1
66
1
70
1
0
VERTEX
8
1
10
9.260345
20
9.655838
0
VERTEX
8
1
10
9.232796
20
10.023941
0
VERTEX
8
1
10
12.943504
20
9.975998
0
VERTEX
8
1
10
12.943512
20
9.906387
0
VERTEX
8
1
10
13.455627
20
9.898773
42
0.809999
0
VERTEX
8
1
10
13.655083
20
9.840607
0
VERTEX
8
1
10
13.687317
20
9.651794
0
SEQEND
0
POLYLINE
8
1
66
1
70
1
0
VERTEX
8
1
10
13.700455
20
9.411087
0
VERTEX
8
1
10
13.700455
20
9.204926
0
VERTEX
8
1
10
9.277199
20
9.228607
0
VERTEX
8
1
10
9.272728
20
9.411865
0
SEQEND
0
POLYLINE
8
1
66
1
70
1
0
VERTEX
8
1
10
13.812424
20
9.652710
42
0.046653
0
VERTEX
8
1
10
13.756233
20
9.965515
0
VERTEX
8
1
10
18.738838
20
9.903702
42
-0.107605
0
VERTEX
8
1
10
19.288528
20
9.834610
42
-0.285538
0
VERTEX
8
1
10
19.424561
20
9.638260
0
SEQEND
0
POLYLINE
8
1
66
1
70
1
0
VERTEX
8
1
10
19.580147
20
9.157761
0
VERTEX
8
1
10
13.825455
20
9.199539
0
VERTEX
8
1
10
13.825455
20
9.406860
0
VERTEX
8
1
10
19.495964
20
9.402893
42
-0.135031
0
VERTEX
8
1
10
19.595505
20
9.325638
42
-0.618889
0
SEQEND
0
POLYLINE
8
1
66
1
0
VERTEX
8
1
10
1.054626
20
9.082535
42
-0.115218
0
VERTEX
8
1
10
1.124649
20
9.297470
0
VERTEX
8
1
10
1.137955
20
9.304764
0
SEQEND
0
POLYLINE
8
1
66
1
0
VERTEX
8
1
10
2.091568
20
9.757034
0
VERTEX
8
1
10
2.131622
20
9.636902
0
VERTEX
8
1
10
2.396225
20
9.773636
0
VERTEX
8
1
10
3.486412
20
9.777863
42
0.165199
0
VERTEX
8
1
10
3.362343
20
9.632034
0
SEQEND
0
ARC
8
1
10
1.430561
20
9.517177
40
0.151825
50
116.658198
51
175.958222
0
LINE
8
1
10
13.874069
20
8.881149
11
19.332405
21
8.735306
0
LINE
8
1
10
9.283791
20
8.985306
11
13.721291
21
8.881149
0
ARC
8
1
10
1.823659
20
-242.217636
40
251.330442
50
88.330737
51
89.345743
0
LINE
8
1
10
14.401848
20
11.401978
11
15.818512
21
10.304764
0
LINE
8
1
10
13.026848
20
10.082535
11
15.276848
21
10.082535
0
POLYLINE
8
1
66
1
0
VERTEX
8
1
10
3.526848
20
9.332535
42
0.480837
0
VERTEX
8
1
10
3.363678
20
9.236008
42
0.230728
0
VERTEX
8
1
10
3.582405
20
8.415863
0
SEQEND
0
POLYLINE
8
1
66
1
0
VERTEX
8
1
10
1.415733
20
8.360306
42
0.102772
0
VERTEX
8
1
10
1.636864
20
8.567673
0
VERTEX
8
1
10
1.639992
20
8.587631
0
VERTEX
8
1
10
1.512955
20
8.818649
0
SEQEND
0
LINE
8
1
10
2.267540
20
9.253830
11
3.239815
21
9.253830
0
LINE
8
1
10
1.424995
20
9.170486
11
1.948875
21
9.234207
0
LINE
8
1
10
2.304626
20
9.099884
11
3.221291
21
9.099884
0
LINE
8
1
10
1.508331
20
9.050125
11
1.967125
21
9.086929
0
LINE
8
1
10
2.355347
20
8.951843
11
3.202774
21
8.936691
0
LINE
8
1
10
1.600922
20
8.920486
11
2.003883
21
8.945267
0
LINE
8
1
10
2.401848
20
8.789047
11
3.202774
21
8.773514
0
LINE
8
1
10
1.702774
20
8.763077
11
2.086967
21
8.783417
0
LINE
8
1
10
2.457405
20
8.642700
11
3.165733
21
8.642700
0
LINE
8
1
10
1.749069
20
8.614944
11
2.142540
21
8.635284
0
POLYLINE
8
1
66
1
0
VERTEX
8
1
10
4.207405
20
8.415863
42
-0.042652
0
VERTEX
8
1
10
3.681496
20
9.180786
42
-0.126652
0
VERTEX
8
1
10
3.645096
20
9.313538
0
VERTEX
8
1
10
3.651848
20
9.332535
0
SEQEND
0
POLYLINE
8
1
66
1
0
VERTEX
8
1
10
4.554626
20
8.290863
42
0.053218
0
VERTEX
8
1
10
5.095955
20
8.337189
0
VERTEX
8
1
10
5.110176
20
8.346420
0
SEQEND
0
LINE
8
1
10
2.286087
20
8.050125
11
2.350922
21
7.846405
0
LINE
8
1
10
8.290733
20
10.110306
11
6.582405
21
10.151978
0
POLYLINE
8
1
66
1
0
VERTEX
8
1
10
5.332405
20
8.179764
42
-0.014885
0
VERTEX
8
1
10
4.853233
20
7.172806
42
-0.036272
0
VERTEX
8
1
10
4.250427
20
7.175507
0
VERTEX
8
1
10
4.165733
20
7.318649
0
SEQEND
0
POLYLINE
8
1
66
1
0
VERTEX
8
1
10
3.860176
20
7.464478
0
VERTEX
8
1
10
4.235550
20
7.458008
42
0.138349
0
VERTEX
8
1
10
4.384109
20
7.996628
0
VERTEX
8
1
10
4.387955
20
8.075592
0
SEQEND
0
POLYLINE
8
1
66
1
0
VERTEX
8
1
10
3.464348
20
7.520035
0
VERTEX
8
1
10
2.725212
20
7.520035
0
VERTEX
8
1
10
2.560974
20
7.457001
42
-0.022627
0
VERTEX
8
1
10
2.006012
20
7.450592
0
SEQEND
0
ARC
8
1
10
3.615995
20
7.431443
40
0.654466
50
-171.360366
51
-31.558827
0
ARC
8
1
10
6.098444
20
7.589767
40
1.400618
50
-27.127443
51
38.842053
0
POLYLINE
8
1
66
1
0
VERTEX
8
1
10
7.804626
20
7.888092
42
-0.142951
0
VERTEX
8
1
10
7.948326
20
7.297302
42
0.036119
0
VERTEX
8
1
10
7.970474
20
7.046555
0
VERTEX
8
1
10
14.957405
20
7.332535
42
-0.168709
0
VERTEX
8
1
10
15.568512
20
8.263092
0
SEQEND
0
ARC
8
1
10
0.888852
20
7.992256
40
8.395679
50
-5.267940
51
5.267940
0
ARC
8
1
10
-5.245936
20
9.787894
40
19.078857
50
-7.268029
51
-3.120829
0
LINE
8
1
10
9.429626
20
7.457535
11
13.526848
21
7.582535
0
POLYLINE
8
1
66
1
0
VERTEX
8
1
10
5.739815
20
7.939026
42
0.241565
0
VERTEX
8
1
10
5.969185
20
7.849930
0
VERTEX
8
1
10
5.983322
20
7.863068
42
0.095432
0
VERTEX
8
1
10
5.915733
20
8.124207
0
SEQEND
0
LINE
8
1
10
6.156479
20
7.670486
11
6.054626
21
7.772354
0
POLYLINE
8
1
66
1
0
VERTEX
8
1
10
6.428658
20
8.202744
42
0.168196
0
VERTEX
8
1
10
6.405746
20
7.980194
0
VERTEX
8
1
10
6.420525
20
7.957596
0
VERTEX
8
1
10
6.438820
20
7.947647
42
0.116197
0
VERTEX
8
1
10
6.610176
20
8.050125
0
SEQEND
0
LINE
8
1
10
6.314629
20
7.720337
11
6.376656
21
7.850342
0
POLYLINE
8
1
66
1
0
VERTEX
8
1
10
6.832405
20
7.568649
42
0.242062
0
VERTEX
8
1
10
6.618439
20
7.501205
0
VERTEX
8
1
10
6.610176
20
7.476044
0
VERTEX
8
1
10
6.608322
20
7.461792
42
0.151599
0
VERTEX
8
1
10
6.767586
20
7.309387
0
SEQEND
0
POLYLINE
8
1
66
1
0
VERTEX
8
1
10
6.434258
20
6.957535
42
0.164015
0
VERTEX
8
1
10
6.326698
20
7.153137
42
0.419877
0
VERTEX
8
1
10
6.272018
20
7.143402
42
0.253305
0
VERTEX
8
1
10
6.212036
20
6.920486
0
SEQEND
0
POLYLINE
8
1
66
1
0
VERTEX
8
1
10
5.674995
20
7.420486
42
-0.183205
0
VERTEX
8
1
10
5.867889
20
7.421570
0
VERTEX
8
1
10
5.885056
20
7.405594
0
VERTEX
8
1
10
5.897202
20
7.383469
42
-0.156824
0
VERTEX
8
1
10
5.767586
20
7.189026
0
SEQEND
0
LINE
8
1
10
5.962036
20
7.420486
11
6.063889
21
7.466797
0
LINE
8
1
10
6.295364
20
7.364944
11
6.286110
21
7.244583
0
LINE
8
1
10
6.434258
20
7.513092
11
6.508331
21
7.485306
0
POLYLINE
8
1
66
1
70
1
0
VERTEX
8
1
10
6.147202
20
7.540863
42
-1.248611
0
VERTEX
8
1
10
6.295364
20
7.540863
42
-1.248611
0
SEQEND
0
POLYLINE
8
1
66
1
70
1
0
VERTEX
8
1
10
6.184334
20
8.214935
42
0.219551
0
VERTEX
8
1
10
5.989815
20
8.161240
42
0.187361
0
VERTEX
8
1
10
6.104385
20
7.990097
0
VERTEX
8
1
10
6.122597
20
7.991730
0
VERTEX
8
1
10
6.139381
20
8.002563
42
0.152545
0
SEQEND
0
POLYLINE
8
1
66
1
70
1
0
VERTEX
8
1
10
6.763206
20
7.743042
42
0.230676
0
VERTEX
8
1
10
6.679405
20
7.936264
0
VERTEX
8
1
10
6.665733
20
7.939026
42
0.144367
0
VERTEX
8
1
10
6.525688
20
7.780167
42
0.410711
0
VERTEX
8
1
10
6.554657
20
7.738525
42
0.229597
0
SEQEND
0
POLYLINE
8
1
66
1
70
1
0
VERTEX
8
1
10
6.528595
20
7.015549
42
0.127874
0
VERTEX
8
1
10
6.665733
20
7.161240
0
VERTEX
8
1
10
6.534378
20
7.247437
42
0.441429
0
VERTEX
8
1
10
6.437592
20
7.243317
42
0.207353
0
VERTEX
8
1
10
6.509834
20
7.024887
0
SEQEND
0
POLYLINE
8
1
66
1
70
1
0
VERTEX
8
1
10
5.977882
20
7.191116
42
0.170257
0
VERTEX
8
1
10
5.850922
20
7.087158
42
0.077410
0
VERTEX
8
1
10
5.982147
20
6.986450
42
0.308908
0
VERTEX
8
1
10
6.012222
20
7.173431
0
VERTEX
8
1
10
5.996414
20
7.186081
0
SEQEND
0
POLYLINE
8
1
66
1
70
1
0
VERTEX
8
1
10
5.780762
20
7.627502
42
0.402650
0
VERTEX
8
1
10
5.674995
20
7.744583
42
0.193259
0
VERTEX
8
1
10
5.659615
20
7.577118
42
0.199373
0
SEQEND
0
POLYLINE
8
1
66
1
70
1
0
VERTEX
8
1
10
5.603027
20
8.034607
0
VERTEX
8
1
10
5.601181
20
8.037384
42
-0.198609
0
VERTEX
8
1
10
6.115456
20
8.442017
42
-0.360608
0
VERTEX
8
1
10
7.033379
20
7.965439
42
-0.206344
0
VERTEX
8
1
10
7.080017
20
7.249298
42
-0.407753
0
VERTEX
8
1
10
6.178421
20
6.679733
0
VERTEX
8
1
10
6.137642
20
6.687302
42
-0.230500
0
VERTEX
8
1
10
5.601028
20
7.142685
0
VERTEX
8
1
10
5.662888
20
7.105453
42
0.041302
0
VERTEX
8
1
10
6.030441
20
6.866058
42
0.258555
0
VERTEX
8
1
10
6.677040
20
6.900665
42
0.448233
0
VERTEX
8
1
10
6.640770
20
8.208359
42
0.265425
0
VERTEX
8
1
10
5.881813
20
8.236496
42
-0.019219
0
SEQEND
0
ARC
8
1
10
6.567366
20
7.599850
40
1.073756
50
165.706712
51
-167.869220
0
POLYLINE
8
1
66
1
0
VERTEX
8
1
10
7.016983
20
6.625122
42
-0.316589
0
VERTEX
8
1
10
5.712509
20
6.596176
42
-0.209938
0
VERTEX
8
1
10
5.205399
20
7.387131
0
VERTEX
8
1
10
5.194580
20
7.456528
0
SEQEND
0
LINE
8
1
10
9.415733
20
6.957535
11
12.318512
21
6.999207
0
POLYLINE
8
1
66
1
0
VERTEX
8
1
10
12.443512
20
7.110306
42
-0.468347
0
VERTEX
8
1
10
12.407326
20
6.892181
0
VERTEX
8
1
10
12.389915
20
6.876221
42
0.330438
0
VERTEX
8
1
10
12.445778
20
6.848740
42
0.030366
0
VERTEX
8
1
10
13.375397
20
6.909683
42
0.507441
0
VERTEX
8
1
10
13.451645
20
6.959915
42
0.547325
0
VERTEX
8
1
10
13.387886
20
7.132919
42
0.025540
0
VERTEX
8
1
10
12.651848
20
7.096420
0
SEQEND
0
LINE
8
1
10
13.624069
20
6.999207
11
14.012955
21
7.013092
0
POLYLINE
8
1
66
1
0
VERTEX
8
1
10
13.596291
20
7.179764
0
VERTEX
8
1
10
14.229446
20
7.192688
42
-0.152792
0
VERTEX
8
1
10
14.526848
20
7.151978
0
SEQEND
0
LINE
8
1
10
19.507370
20
8.444580
11
19.403206
21
8.027924
0
POLYLINE
8
1
66
1
0
VERTEX
8
1
10
15.886620
20
7.899841
42
0.249363
0
VERTEX
8
1
10
16.087143
20
7.841614
0
VERTEX
8
1
10
16.098610
20
7.856476
42
0.083909
0
VERTEX
8
1
10
16.016212
20
8.090210
0
SEQEND
0
LINE
8
1
10
16.262787
20
7.696213
11
16.167305
21
7.779510
0
POLYLINE
8
1
66
1
0
VERTEX
8
1
10
16.432495
20
8.197449
42
0.254596
0
VERTEX
8
1
10
16.465706
20
7.982620
42
0.135556
0
VERTEX
8
1
10
16.606598
20
8.096527
0
SEQEND
0
LINE
8
1
10
16.390724
20
7.759384
11
16.430061
21
7.886414
0
POLYLINE
8
1
66
1
0
VERTEX
8
1
10
16.840324
20
7.674835
0
VERTEX
8
1
10
16.811089
20
7.672165
42
0.391306
0
VERTEX
8
1
10
16.662132
20
7.558182
0
VERTEX
8
1
10
16.664505
20
7.544189
42
0.139166
0
VERTEX
8
1
10
16.811279
20
7.427856
0
SEQEND
0
POLYLINE
8
1
66
1
0
VERTEX
8
1
10
16.565865
20
7.066238
42
0.145929
0
VERTEX
8
1
10
16.458672
20
7.234680
42
0.492050
0
VERTEX
8
1
10
16.410248
20
7.218231
42
0.219216
0
VERTEX
8
1
10
16.382881
20
7.007996
0
SEQEND
0
POLYLINE
8
1
66
1
0
VERTEX
8
1
10
15.883003
20
7.412903
0
VERTEX
8
1
10
15.896240
20
7.419342
42
-0.406052
0
VERTEX
8
1
10
16.073196
20
7.402573
42
-0.146883
0
VERTEX
8
1
10
15.983391
20
7.208649
0
SEQEND
0
LINE
8
1
10
16.124016
20
7.443832
11
16.204979
21
7.497696
0
LINE
8
1
10
16.409363
20
7.428360
11
16.413353
21
7.315964
0
LINE
8
1
10
16.511459
20
7.580460
11
16.576378
21
7.562729
0
POLYLINE
8
1
66
1
70
1
0
VERTEX
8
1
10
16.267143
20
7.592651
42
-0.367820
0
VERTEX
8
1
10
16.320847
20
7.668945
42
-0.613749
0
VERTEX
8
1
10
16.362488
20
7.507355
42
-0.622278
0
SEQEND
0
POLYLINE
8
1
66
1
70
1
0
VERTEX
8
1
10
16.233185
20
8.200882
42
0.267027
0
VERTEX
8
1
10
16.074791
20
8.132492
42
0.209095
0
VERTEX
8
1
10
16.192406
20
7.986511
0
VERTEX
8
1
10
16.207710
20
7.993179
42
0.172483
0
SEQEND
0
POLYLINE
8
1
66
1
70
1
0
VERTEX
8
1
10
16.767258
20
7.843201
42
0.257428
0
VERTEX
8
1
10
16.664101
20
7.999680
42
0.169171
0
VERTEX
8
1
10
16.563156
20
7.827133
0
VERTEX
8
1
10
16.570213
20
7.812546
42
0.305155
0
VERTEX
8
1
10
16.766670
20
7.831787
0
SEQEND
0
POLYLINE
8
1
66
1
70
1
0
VERTEX
8
1
10
16.630386
20
7.126648
42
0.149877
0
VERTEX
8
1
10
16.740280
20
7.279739
0
VERTEX
8
1
10
16.633469
20
7.340561
42
0.452208
0
VERTEX
8
1
10
16.541672
20
7.333603
42
0.203251
0
SEQEND
0
POLYLINE
8
1
66
1
70
1
0
VERTEX
8
1
10
16.153946
20
7.232544
42
0.122163
0
VERTEX
8
1
10
16.063362
20
7.123337
42
0.101279
0
VERTEX
8
1
10
16.189941
20
7.044052
42
0.266406
0
VERTEX
8
1
10
16.186890
20
7.223785
0
VERTEX
8
1
10
16.170013
20
7.232605
0
SEQEND
0
POLYLINE
8
1
66
1
70
1
0
VERTEX
8
1
10
15.952766
20
7.618820
42
0.388436
0
VERTEX
8
1
10
15.851250
20
7.712860
42
0.164521
0
VERTEX
8
1
10
15.852020
20
7.556595
42
0.231478
0
SEQEND
0
POLYLINE
8
1
66
1
0
VERTEX
8
1
10
16.866554
20
6.639084
42
-0.367621
0
VERTEX
8
1
10
15.694031
20
6.829880
42
-0.253774
0
VERTEX
8
1
10
15.445183
20
7.902878
0
SEQEND
0
POLYLINE
8
1
66
1
70
1
0
VERTEX
8
1
10
19.459496
20
2.324265
0
VERTEX
8
1
10
19.598572
20
2.604523
42
0.279698
0
VERTEX
8
1
10
19.460266
20
2.747665
0
VERTEX
8
1
10
19.323463
20
2.749619
0
VERTEX
8
1
10
19.309975
20
2.844193
42
0.085239
0
VERTEX
8
1
10
19.482628
20
3.147491
42
0.403321
0
VERTEX
8
1
10
19.363167
20
3.601669
0
VERTEX
8
1
10
19.338074
20
3.625519
42
0.258143
0
VERTEX
8
1
10
19.293579
20
3.853851
42
0.274589
0
VERTEX
8
1
10
18.999191
20
4.061096
42
-0.005916
0
VERTEX
8
1
10
16.012474
20
4.202850
0
VERTEX
8
1
10
14.346977
20
5.471985
42
0.058267
0
VERTEX
8
1
10
14.090942
20
5.654755
42
0.071293
0
VERTEX
8
1
10
13.544983
20
5.786209
42
0.064515
0
VERTEX
8
1
10
7.716469
20
5.707321
42
0.230712
0
VERTEX
8
1
10
7.414017
20
5.466949
0
VERTEX
8
1
10
7.411346
20
5.449661
0
VERTEX
8
1
10
6.337013
20
4.452026
42
-0.076278
0
VERTEX
8
1
10
6.161163
20
4.407043
42
0.185618
0
VERTEX
8
1
10
5.977058
20
4.278519
42
0.017983
0
VERTEX
8
1
10
2.481506
20
4.033127
0
VERTEX
8
1
10
2.232849
20
3.999146
0
VERTEX
8
1
10
2.003738
20
3.962585
0
VERTEX
8
1
10
1.247101
20
3.876328
42
0.039401
0
VERTEX
8
1
10
1.042603
20
3.825974
42
0.122109
0
VERTEX
8
1
10
0.677635
20
3.491989
42
0.230262
0
VERTEX
8
1
10
0.614838
20
3.324387
0
VERTEX
8
1
10
0.799339
20
3.010056
42
0.113044
0
VERTEX
8
1
10
0.970177
20
2.538361
42
0.130429
0
VERTEX
8
1
10
1.040771
20
2.490356
42
0.113048
0
VERTEX
8
1
10
0.866302
20
2.415909
42
-0.326955
0
VERTEX
8
1
10
0.732300
20
2.379013
42
0.356796
0
VERTEX
8
1
10
0.509239
20
2.245163
42
0.106340
0
VERTEX
8
1
10
0.565773
20
1.935913
42
0.188304
0
VERTEX
8
1
10
0.786530
20
1.596390
0
VERTEX
8
1
10
1.250412
20
1.610580
42
0.322011
0
VERTEX
8
1
10
1.337914
20
1.577362
42
-0.217193
0
VERTEX
8
1
10
1.703857
20
1.447006
42
0.069750
0
VERTEX
8
1
10
2.006294
20
1.379257
0
VERTEX
8
1
10
2.024895
20
1.346710
42
0.223005
0
VERTEX
8
1
10
2.411911
20
0.673584
42
0.189433
0
VERTEX
8
1
10
3.320641
20
0.423538
42
0.069341
0
VERTEX
8
1
10
3.933311
20
0.556030
42
0.180688
0
VERTEX
8
1
10
4.353287
20
0.952057
0
VERTEX
8
1
10
4.661018
20
0.935791
42
0.270669
0
VERTEX
8
1
10
5.551453
20
0.346542
42
0.294033
0
VERTEX
8
1
10
7.040276
20
0.861038
0
VERTEX
8
1
10
8.554070
20
0.910889
0
VERTEX
8
1
10
8.563667
20
0.913376
42
-0.074540
0
VERTEX
8
1
10
8.611961
20
0.890823
0
VERTEX
8
1
10
10.956017
20
0.970139
42
-0.331186
0
VERTEX
8
1
10
11.036285
20
0.939316
0
VERTEX
8
1
10
11.882614
20
0.981064
42
0.387257
0
VERTEX
8
1
10
11.962044
20
0.927780
42
0.211592
0
VERTEX
8
1
10
12.821938
20
0.514938
42
0.294122
0
VERTEX
8
1
10
13.904404
20
1.091003
42
-0.130124
0
VERTEX
8
1
10
14.108681
20
1.013916
42
0.156829
0
VERTEX
8
1
10
14.420540
20
1.175522
0
VERTEX
8
1
10
14.533195
20
1.184937
42
0.096756
0
VERTEX
8
1
10
14.683853
20
1.344421
42
0.075951
0
VERTEX
8
1
10
14.899765
20
0.883850
42
0.224252
0
VERTEX
8
1
10
15.711761
20
0.430389
0
VERTEX
8
1
10
15.896263
20
0.444122
42
0.231184
0
VERTEX
8
1
10
16.819374
20
0.802063
42
0.155173
0
VERTEX
8
1
10
17.142113
20
1.693985
42
0.073537
0
VERTEX
8
1
10
17.466797
20
1.777359
0
VERTEX
8
1
10
17.539711
20
1.744583
0
VERTEX
8
1
10
18.771385
20
1.894150
42
-0.276325
0
VERTEX
8
1
10
18.830360
20
1.875046
0
VERTEX
8
1
10
18.927338
20
1.883530
42
0.305088
0
VERTEX
8
1
10
19.137108
20
1.999619
0
VERTEX
8
1
10
19.332451
20
1.999619
42
0.066509
0
VERTEX
8
1
10
19.461319
20
2.197311
0
SEQEND
0
POLYLINE
8
1
66
1
70
1
0
VERTEX
8
1
10
8.324799
20
5.746887
42
-0.031424
0
VERTEX
8
1
10
10.510849
20
5.886902
42
-0.018491
0
VERTEX
8
1
10
13.111885
20
5.728058
42
0.002867
0
VERTEX
8
1
10
10.189514
20
5.809647
42
0.107835
0
VERTEX
8
1
10
9.941238
20
5.790527
0
VERTEX
8
1
10
9.939827
20
5.787277
42
0.071305
0
VERTEX
8
1
10
10.181839
20
5.744080
0
VERTEX
8
1
10
12.985580
20
5.677002
42
-0.159611
0
VERTEX
8
1
10
13.715202
20
5.481567
0
VERTEX
8
1
10
13.806503
20
5.428207
42
-0.044984
0
VERTEX
8
1
10
15.223801
20
4.297806
0
VERTEX
8
1
10
15.717293
20
4.277771
42
-0.069773
0
VERTEX
8
1
10
15.834579
20
4.186432
42
-0.013098
0
VERTEX
8
1
10
15.198532
20
4.207550
0
VERTEX
8
1
10
13.967873
20
5.177628
42
0.137228
0
VERTEX
8
1
10
13.168076
20
5.596680
0
VERTEX
8
1
10
13.104973
20
5.603897
42
0.021088
0
VERTEX
8
1
10
10.418854
20
5.630081
42
0.245517
0
VERTEX
8
1
10
10.291725
20
5.545242
42
0.020327
0
VERTEX
8
1
10
9.280266
20
4.206268
0
VERTEX
8
1
10
9.258530
20
4.203262
42
-0.018156
0
VERTEX
8
1
10
7.566734
20
4.327209
42
-0.004191
0
VERTEX
8
1
10
9.143097
20
4.319107
42
-0.008865
0
VERTEX
8
1
10
9.838852
20
5.282440
42
0.173596
0
VERTEX
8
1
10
9.939980
20
5.441376
42
0.388645
0
VERTEX
8
1
10
9.861305
20
5.459534
0
VERTEX
8
1
10
9.894135
20
5.573563
0
VERTEX
8
1
10
9.886086
20
5.589996
42
0.100068
0
VERTEX
8
1
10
9.394028
20
5.697311
42
0.040236
0
VERTEX
8
1
10
7.811378
20
5.612259
42
-0.070311
0
SEQEND
0
POLYLINE
8
1
66
1
70
1
0
VERTEX
8
1
10
13.530182
20
5.303757
42
-0.015834
0
VERTEX
8
1
10
14.772270
20
4.360748
0
VERTEX
8
1
10
14.735840
20
4.363403
42
0.012494
0
VERTEX
8
1
10
12.787560
20
4.263626
0
VERTEX
8
1
10
12.666672
20
4.355331
0
VERTEX
8
1
10
12.563965
20
5.443893
42
-0.171188
0
SEQEND
0
POLYLINE
8
1
66
1
70
1
0
VERTEX
8
1
10
12.493279
20
4.523514
42
0.004642
0
VERTEX
8
1
10
11.688942
20
5.277405
42
-0.013557
0
VERTEX
8
1
10
12.383469
20
5.429550
0
SEQEND
0
POLYLINE
8
1
66
1
70
1
0
VERTEX
8
1
10
10.921333
20
5.073090
0
VERTEX
8
1
10
11.810570
20
4.266586
0
VERTEX
8
1
10
10.480606
20
4.277405
0
VERTEX
8
1
10
10.397728
20
5.285721
42
-0.130066
0
SEQEND
0
POLYLINE
8
1
66
1
70
1
0
VERTEX
8
1
10
10.374123
20
4.305191
0
VERTEX
8
1
10
10.096344
20
4.305191
0
VERTEX
8
1
10
10.179672
20
5.184814
0
VERTEX
8
1
10
10.290787
20
5.323700
0
SEQEND
0
POLYLINE
8
1
66
1
70
1
0
VERTEX
8
1
10
9.513702
20
4.368896
42
-0.019102
0
VERTEX
8
1
10
10.022270
20
5.018143
0
VERTEX
8
1
10
9.939003
20
4.319565
0
VERTEX
8
1
10
9.592163
20
4.306076
42
-0.582433
0
SEQEND
0
POLYLINE
8
1
66
1
70
1
0
VERTEX
8
1
10
7.671211
20
4.485764
0
VERTEX
8
1
10
7.753250
20
5.410538
42
-0.011531
0
VERTEX
8
1
10
9.734756
20
5.350815
0
VERTEX
8
1
10
9.059799
20
4.407700
0
VERTEX
8
1
10
8.415428
20
4.394241
0
VERTEX
8
1
10
8.413887
20
4.446609
0
SEQEND
0
POLYLINE
8
1
66
1
70
1
0
VERTEX
8
1
10
6.678505
20
4.486786
0
VERTEX
8
1
10
7.605606
20
5.342224
0
VERTEX
8
1
10
7.521393
20
4.411804
0
VERTEX
8
1
10
7.453117
20
4.408615
0
VERTEX
8
1
10
7.450859
20
4.445953
0
SEQEND
0
POLYLINE
8
1
66
1
70
1
0
VERTEX
8
1
10
3.503700
20
3.625534
42
-0.200363
0
VERTEX
8
1
10
4.044388
20
3.989243
0
VERTEX
8
1
10
4.086876
20
4.000504
42
-0.022427
0
VERTEX
8
1
10
6.342331
20
4.109680
42
-0.010431
0
VERTEX
8
1
10
8.846306
20
4.125366
0
VERTEX
8
1
10
8.880035
20
3.759476
0
VERTEX
8
1
10
4.616135
20
3.754135
42
0.077333
0
VERTEX
8
1
10
4.046333
20
3.707779
42
0.200031
0
VERTEX
8
1
10
3.941765
20
3.610046
0
SEQEND
0
POLYLINE
8
1
66
1
70
1
0
VERTEX
8
1
10
3.265579
20
3.021484
42
-0.241980
0
VERTEX
8
1
10
3.374916
20
3.316132
0
VERTEX
8
1
10
3.391266
20
3.323181
0
VERTEX
8
1
10
3.458397
20
3.085510
42
0.411786
0
VERTEX
8
1
10
3.495461
20
2.824036
42
-0.566311
0
VERTEX
8
1
10
3.515236
20
2.800110
42
-0.458564
0
VERTEX
8
1
10
3.416245
20
2.589920
42
-0.245333
0
VERTEX
8
1
10
3.356522
20
2.622101
42
-0.151262
0
SEQEND
0
POLYLINE
8
1
66
1
70
1
0
VERTEX
8
1
10
0.983093
20
3.494659
0
VERTEX
8
1
10
1.827827
20
3.638519
0
VERTEX
8
1
10
3.187050
20
3.610107
42
0.187067
0
VERTEX
8
1
10
3.064972
20
3.474472
42
0.022157
0
VERTEX
8
1
10
1.973717
20
3.469910
0
VERTEX
8
1
10
1.938812
20
3.462753
0
VERTEX
8
1
10
1.920906
20
3.438614
0
VERTEX
8
1
10
1.921082
20
3.283920
42
0.075967
0
VERTEX
8
1
10
2.169922
20
2.625488
0
VERTEX
8
1
10
3.114227
20
2.610764
0
VERTEX
8
1
10
3.150566
20
2.516998
0
VERTEX
8
1
10
1.411163
20
2.499634
0
VERTEX
8
1
10
1.471970
20
2.590851
0
VERTEX
8
1
10
2.043015
20
2.610687
0
VERTEX
8
1
10
1.954498
20
2.823746
42
-0.115960
0
VERTEX
8
1
10
1.786636
20
3.466599
0
VERTEX
8
1
10
1.050552
20
3.360825
0
SEQEND
0
POLYLINE
8
1
66
1
70
1
0
VERTEX
8
1
10
1.086922
20
2.576065
0
VERTEX
8
1
10
1.043365
20
2.610519
42
-0.287671
0
VERTEX
8
1
10
1.004982
20
3.242416
0
VERTEX
8
1
10
1.015823
20
3.249771
42
-0.126319
0
VERTEX
8
1
10
1.113556
20
3.011444
42
0.358256
0
VERTEX
8
1
10
1.149330
20
2.767456
0
VERTEX
8
1
10
1.147583
20
2.571960
42
-0.357081
0
SEQEND
0
POLYLINE
8
1
66
1
70
1
0
VERTEX
8
1
10
0.888008
20
1.842224
0
VERTEX
8
1
10
0.790787
20
2.115372
0
VERTEX
8
1
10
0.925049
20
2.119995
0
VERTEX
8
1
10
1.013008
20
1.851486
0
SEQEND
0
POLYLINE
8
1
66
1
70
1
0
VERTEX
8
1
10
1.647270
20
1.703323
0
VERTEX
8
1
10
1.508385
20
2.161667
0
VERTEX
8
1
10
1.827827
20
1.772766
0
VERTEX
8
1
10
2.100960
20
1.869995
0
VERTEX
8
1
10
2.161163
20
1.707947
0
SEQEND
0
POLYLINE
8
1
66
1
70
1
0
VERTEX
8
1
10
3.143219
20
1.846848
0
VERTEX
8
1
10
3.050049
20
2.119995
0
VERTEX
8
1
10
3.178711
20
2.124619
0
VERTEX
8
1
10
3.263008
20
1.856110
0
SEQEND
0
POLYLINE
8
1
66
1
70
1
0
VERTEX
8
1
10
3.989006
20
2.415344
42
-0.642295
0
VERTEX
8
1
10
4.134590
20
2.263901
0
VERTEX
8
1
10
3.507011
20
2.237228
42
0.502149
0
VERTEX
8
1
10
3.393822
20
2.154968
42
0.078449
0
VERTEX
8
1
10
3.472855
20
1.577988
42
-0.224324
0
VERTEX
8
1
10
3.309593
20
1.753799
42
-0.075115
0
VERTEX
8
1
10
3.198593
20
2.235870
0
VERTEX
8
1
10
0.625412
20
2.194092
42
-0.390632
0
VERTEX
8
1
10
0.808121
20
2.309219
0
VERTEX
8
1
10
0.815964
20
2.311584
42
-0.171249
0
VERTEX
8
1
10
0.961891
20
2.358765
42
-0.037507
0
VERTEX
8
1
10
1.814369
20
2.385452
42
0.032739
0
VERTEX
8
1
10
2.608559
20
2.419266
0
SEQEND
0
POLYLINE
8
1
66
1
70
1
0
VERTEX
8
1
10
7.390221
20
2.437408
42
-0.223475
0
VERTEX
8
1
10
7.466713
20
2.180191
42
0.222042
0
VERTEX
8
1
10
6.309860
20
2.883957
42
0.316750
0
VERTEX
8
1
10
5.149025
20
2.378006
0
VERTEX
8
1
10
5.102013
20
2.439636
42
-0.203547
0
VERTEX
8
1
10
5.243073
20
2.729797
42
-0.266848
0
VERTEX
8
1
10
6.675697
20
3.031189
42
-0.147811
0
SEQEND
0
POLYLINE
8
1
66
1
70
1
0
VERTEX
8
1
10
8.897461
20
3.330795
0
VERTEX
8
1
10
4.417946
20
3.353516
42
-0.124235
0
VERTEX
8
1
10
3.880112
20
3.436874
42
-0.093453
0
VERTEX
8
1
10
4.212883
20
3.515121
0
VERTEX
8
1
10
8.892975
20
3.515121
0
SEQEND
0
POLYLINE
8
1
66
1
70
1
0
VERTEX
8
1
10
9.005768
20
3.753464
0
VERTEX
8
1
10
8.978218
20
4.121597
0
VERTEX
8
1
10
12.688950
20
4.073654
0
VERTEX
8
1
10
12.688942
20
4.004059
0
VERTEX
8
1
10
13.201065
20
3.996429
42
0.810043
0
VERTEX
8
1
10
13.400513
20
3.938263
0
VERTEX
8
1
10
13.432739
20
3.749451
0
SEQEND
0
POLYLINE
8
1
66
1
70
1
0
VERTEX
8
1
10
13.445877
20
3.508759
0
VERTEX
8
1
10
13.445885
20
3.302582
0
VERTEX
8
1
10
9.022621
20
3.326263
0
VERTEX
8
1
10
9.018150
20
3.509521
0
SEQEND
0
POLYLINE
8
1
66
1
70
1
0
VERTEX
8
1
10
13.557831
20
3.750366
42
0.046673
0
VERTEX
8
1
10
13.501671
20
4.063171
0
VERTEX
8
1
10
18.484268
20
4.001358
42
-0.107550
0
VERTEX
8
1
10
19.033958
20
3.932266
42
-0.285486
0
VERTEX
8
1
10
19.169991
20
3.735901
0
SEQEND
0
POLYLINE
8
1
66
1
70
1
0
VERTEX
8
1
10
19.325569
20
3.255417
0
VERTEX
8
1
10
13.570885
20
3.297195
0
VERTEX
8
1
10
13.570885
20
3.504501
0
VERTEX
8
1
10
19.241386
20
3.500549
42
-0.134433
0
VERTEX
8
1
10
19.340942
20
3.423325
42
-0.618863
0
SEQEND
0
POLYLINE
8
1
66
1
70
1
0
VERTEX
8
1
10
0.822350
20
3.177216
42
-0.630189
0
VERTEX
8
1
10
0.783775
20
3.164658
42
-0.186005
0
VERTEX
8
1
10
0.852844
20
3.409409
0
VERTEX
8
1
10
0.877930
20
3.424225
42
-0.999861
0
VERTEX
8
1
10
0.888840
20
3.380585
42
0.130499
0
SEQEND
0
POLYLINE
8
1
66
1
70
1
0
VERTEX
8
1
10
2.155533
20
3.853012
0
VERTEX
8
1
10
1.918716
20
3.725693
0
VERTEX
8
1
10
1.868454
20
3.709641
0
VERTEX
8
1
10
1.819366
20
3.836380
42
-0.755342
0
VERTEX
8
1
10
1.844673
20
3.875839
42
-0.132616
0
VERTEX
8
1
10
1.891121
20
3.763458
0
VERTEX
8
1
10
2.136131
20
3.893875
0
VERTEX
8
1
10
3.224823
20
3.898010
42
-0.541982
0
VERTEX
8
1
10
3.254944
20
3.871826
42
0.031203
0
VERTEX
8
1
10
3.133690
20
3.744904
42
-0.825715
0
VERTEX
8
1
10
3.090118
20
3.715729
42
-0.314773
0
VERTEX
8
1
10
3.164268
20
3.851349
0
SEQEND
0
POLYLINE
8
1
66
1
70
1
0
VERTEX
8
1
10
1.048210
20
3.640625
42
-0.784755
0
VERTEX
8
1
10
1.009598
20
3.608704
42
-0.395425
0
VERTEX
8
1
10
1.109604
20
3.773407
42
-0.488783
0
VERTEX
8
1
10
1.128769
20
3.742188
42
0.147092
0
SEQEND
0
POLYLINE
8
1
66
1
70
1
0
VERTEX
8
1
10
19.075554
20
2.855530
42
-0.729766
0
VERTEX
8
1
10
19.092491
20
2.815903
0
VERTEX
8
1
10
13.618347
20
2.956329
42
-0.678176
0
VERTEX
8
1
10
13.604858
20
2.995911
0
SEQEND
0
POLYLINE
8
1
66
1
70
1
0
VERTEX
8
1
10
13.467484
20
3.001282
42
-0.667662
0
VERTEX
8
1
10
13.482109
20
2.962372
0
VERTEX
8
1
10
9.028114
20
3.060516
42
-0.672954
0
VERTEX
8
1
10
9.014282
20
3.099731
0
SEQEND
0
POLYLINE
8
1
66
1
70
1
0
VERTEX
8
1
10
8.891090
20
3.126297
42
-0.677473
0
VERTEX
8
1
10
8.905266
20
3.086975
0
VERTEX
8
1
10
4.445152
20
3.172241
42
-0.822772
0
VERTEX
8
1
10
4.425255
20
3.211945
42
-0.006844
0
SEQEND
0
POLYLINE
8
1
66
1
70
1
0
VERTEX
8
1
10
15.577408
20
4.420456
42
-0.682062
0
VERTEX
8
1
10
15.566368
20
4.380051
0
VERTEX
8
1
10
14.144661
20
5.473190
42
-0.851860
0
VERTEX
8
1
10
14.145493
20
5.522064
0
SEQEND
0
POLYLINE
8
1
66
1
70
1
0
VERTEX
8
1
10
15.020386
20
4.202698
42
-0.724061
0
VERTEX
8
1
10
15.037018
20
4.163177
0
VERTEX
8
1
10
12.783844
20
4.157700
42
-0.824607
0
VERTEX
8
1
10
12.756882
20
4.196594
0
SEQEND
0
POLYLINE
8
1
66
1
70
1
0
VERTEX
8
1
10
3.342873
20
2.530243
42
-1.329264
0
VERTEX
8
1
10
3.296448
20
2.512085
42
-0.218872
0
VERTEX
8
1
10
3.087578
20
3.356766
42
-0.353204
0
VERTEX
8
1
10
3.253098
20
3.458282
42
-0.949343
0
VERTEX
8
1
10
3.281006
20
3.409470
42
0.415121
0
VERTEX
8
1
10
3.134499
20
3.338089
42
0.230774
0
SEQEND
0
POLYLINE
8
1
66
1
70
1
0
VERTEX
8
1
10
1.312012
20
2.545029
0
VERTEX
8
1
10
1.176033
20
2.440857
42
-0.824830
0
VERTEX
8
1
10
1.141258
20
2.468475
42
0.104332
0
VERTEX
8
1
10
1.363167
20
2.678299
0
VERTEX
8
1
10
1.247719
20
2.891006
42
-0.925293
0
VERTEX
8
1
10
1.267372
20
2.936935
0
VERTEX
8
1
10
1.389259
20
2.735428
42
-0.389676
0
VERTEX
8
1
10
1.347610
20
2.579361
0
SEQEND
0
POLYLINE
8
1
66
1
70
1
0
VERTEX
8
1
10
2.983437
20
3.373978
42
-0.725393
0
VERTEX
8
1
10
2.999878
20
3.334396
0
VERTEX
8
1
10
2.014763
20
3.328979
42
-0.725330
0
VERTEX
8
1
10
1.998329
20
3.368561
0
SEQEND
0
POLYLINE
8
1
66
1
70
1
0
VERTEX
8
1
10
1.710655
20
3.316406
0
VERTEX
8
1
10
1.178680
20
3.246475
42
-0.717133
0
VERTEX
8
1
10
1.152390
20
3.281616
0
VERTEX
8
1
10
1.690170
20
3.354034
42
-0.725634
0
SEQEND
0
POLYLINE
8
1
66
1
70
1
0
VERTEX
8
1
10
2.951279
20
3.220032
42
-0.871045
0
VERTEX
8
1
10
2.981659
20
3.180725
0
VERTEX
8
1
10
2.065475
20
3.175049
42
-0.870960
0
VERTEX
8
1
10
2.035110
20
3.214355
0
SEQEND
0
POLYLINE
8
1
66
1
70
1
0
VERTEX
8
1
10
1.729317
20
3.169586
0
VERTEX
8
1
10
1.276505
20
3.127014
42
-0.759346
0
VERTEX
8
1
10
1.235924
20
3.161499
42
-0.041039
0
VERTEX
8
1
10
1.718269
20
3.206711
42
-0.549930
0
SEQEND
0
POLYLINE
8
1
66
1
70
1
0
VERTEX
8
1
10
2.935341
20
3.057068
42
-0.869496
0
VERTEX
8
1
10
2.962219
20
3.016739
0
VERTEX
8
1
10
2.123550
20
3.026566
42
-0.929724
0
VERTEX
8
1
10
2.086250
20
3.066559
0
SEQEND
0
POLYLINE
8
1
66
1
70
1
0
VERTEX
8
1
10
1.764053
20
3.025909
0
VERTEX
8
1
10
1.356201
20
2.996201
42
-0.786589
0
VERTEX
8
1
10
1.331161
20
3.034775
0
VERTEX
8
1
10
1.735870
20
3.064651
42
-0.871441
0
SEQEND
0
POLYLINE
8
1
66
1
70
1
0
VERTEX
8
1
10
2.945259
20
2.893723
42
-0.747873
0
VERTEX
8
1
10
2.962502
20
2.853790
0
VERTEX
8
1
10
2.152786
20
2.864075
42
-0.778586
0
VERTEX
8
1
10
2.132805
20
2.903702
0
SEQEND
0
POLYLINE
8
1
66
1
70
1
0
VERTEX
8
1
10
1.848068
20
2.864929
0
VERTEX
8
1
10
1.461266
20
2.838882
42
-0.818739
0
VERTEX
8
1
10
1.433884
20
2.878082
0
VERTEX
8
1
10
1.828125
20
2.903381
42
-0.739554
0
SEQEND
0
POLYLINE
8
1
66
1
70
1
0
VERTEX
8
1
10
2.896034
20
2.762848
42
-0.887451
0
VERTEX
8
1
10
2.925400
20
2.722931
0
VERTEX
8
1
10
2.206726
20
2.717850
42
-0.737514
0
VERTEX
8
1
10
2.187462
20
2.756790
0
SEQEND
0
POLYLINE
8
1
66
1
70
1
0
VERTEX
8
1
10
1.902542
20
2.715805
0
VERTEX
8
1
10
1.503922
20
2.690552
42
-0.784063
0
VERTEX
8
1
10
1.479469
20
2.729340
0
VERTEX
8
1
10
1.875038
20
2.754822
42
-0.865781
0
SEQEND
0
POLYLINE
8
1
66
1
70
1
0
VERTEX
8
1
10
3.970619
20
2.543503
42
-1.012596
0
VERTEX
8
1
10
3.959091
20
2.492035
42
-0.051018
0
VERTEX
8
1
10
3.417160
20
3.264557
42
-0.135891
0
VERTEX
8
1
10
3.383591
20
3.435791
42
-0.626084
0
VERTEX
8
1
10
3.430359
20
3.440262
42
0.060699
0
VERTEX
8
1
10
3.439911
20
3.335205
0
VERTEX
8
1
10
3.454788
20
3.299286
42
0.041870
0
SEQEND
0
POLYLINE
8
1
66
1
70
1
0
VERTEX
8
1
10
4.825691
20
2.406097
42
-0.048239
0
VERTEX
8
1
10
4.293419
20
2.367020
42
-0.577079
0
VERTEX
8
1
10
4.284729
20
2.404999
42
0.020378
0
VERTEX
8
1
10
4.812820
20
2.447632
0
VERTEX
8
1
10
4.833748
20
2.455704
42
-1.474916
0
VERTEX
8
1
10
4.860626
20
2.420090
0
SEQEND
0
POLYLINE
8
1
66
1
70
1
0
VERTEX
8
1
10
2.112373
20
1.967911
42
-0.943941
0
VERTEX
8
1
10
2.083969
20
1.925278
0
VERTEX
8
1
10
2.013222
20
2.131042
42
-0.851734
0
VERTEX
8
1
10
2.044151
20
2.166397
0
SEQEND
0
POLYLINE
8
1
66
1
70
1
0
VERTEX
8
1
10
8.026962
20
4.230698
42
-0.830181
0
VERTEX
8
1
10
8.050171
20
4.190369
0
VERTEX
8
1
10
6.328873
20
4.227081
42
-0.718987
0
VERTEX
8
1
10
6.313393
20
4.266647
0
SEQEND
0
POLYLINE
8
1
66
1
70
1
0
VERTEX
8
1
10
4.613518
20
1.253632
42
-0.045534
0
VERTEX
8
1
10
3.990211
20
1.251465
42
-0.138389
0
VERTEX
8
1
10
3.900902
20
1.386749
42
-0.789289
0
VERTEX
8
1
10
3.914604
20
1.438522
42
-0.086409
0
VERTEX
8
1
10
4.004150
20
1.294037
42
0.032110
0
VERTEX
8
1
10
4.581520
20
1.290909
0
VERTEX
8
1
10
4.596748
20
1.306473
0
VERTEX
8
1
10
5.057709
20
2.287506
42
-0.686631
0
VERTEX
8
1
10
5.099510
20
2.283432
42
-0.019548
0
VERTEX
8
1
10
4.619652
20
1.260544
0
SEQEND
0
POLYLINE
8
1
66
1
70
1
0
VERTEX
8
1
10
4.027725
20
1.586807
0
VERTEX
8
1
10
3.996315
20
1.539078
0
VERTEX
8
1
10
3.623566
20
1.539276
42
-0.884664
0
VERTEX
8
1
10
3.590744
20
1.579025
0
VERTEX
8
1
10
3.969254
20
1.577911
42
0.130560
0
VERTEX
8
1
10
4.111137
20
2.176544
42
-0.645745
0
VERTEX
8
1
10
4.150787
20
2.187500
42
-0.118219
0
SEQEND
0
POLYLINE
8
1
66
1
70
1
0
VERTEX
8
1
10
2.472420
20
1.595184
0
VERTEX
8
1
10
2.324028
20
1.536148
42
-0.041138
0
VERTEX
8
1
10
1.763481
20
1.525543
42
-0.845950
0
VERTEX
8
1
10
1.736824
20
1.565155
0
VERTEX
8
1
10
2.115036
20
1.567642
42
0.155885
0
VERTEX
8
1
10
2.453224
20
1.636139
0
VERTEX
8
1
10
3.196167
20
1.640198
42
-0.888158
0
VERTEX
8
1
10
3.223503
20
1.599869
0
SEQEND
0
POLYLINE
8
1
66
1
70
1
0
VERTEX
8
1
10
3.940765
20
1.192642
0
VERTEX
8
1
10
3.941261
20
1.190430
42
-0.716808
0
VERTEX
8
1
10
2.691216
20
1.433426
42
-0.570103
0
VERTEX
8
1
10
2.728600
20
1.448273
42
0.707804
0
VERTEX
8
1
10
3.904587
20
1.203766
42
-0.545908
0
SEQEND
0
POLYLINE
8
1
66
1
70
1
0
VERTEX
8
1
10
7.112839
20
1.043213
42
-0.751262
0
VERTEX
8
1
10
7.068848
20
1.042374
42
0.293384
0
VERTEX
8
1
10
6.913574
20
2.558319
42
-0.570834
0
VERTEX
8
1
10
6.938408
20
2.588058
42
-0.302749
0
SEQEND
0
POLYLINE
8
1
66
1
70
1
0
VERTEX
8
1
10
14.719086
20
1.414642
0
VERTEX
8
1
10
7.705208
20
1.119186
42
-0.095045
0
VERTEX
8
1
10
7.677956
20
1.351700
42
0.125263
0
VERTEX
8
1
10
7.540131
20
1.960175
42
-1.084995
0
VERTEX
8
1
10
7.564178
20
2.003265
42
-0.129896
0
VERTEX
8
1
10
7.698410
20
1.609848
0
VERTEX
8
1
10
7.735497
20
1.166168
0
VERTEX
8
1
10
14.686226
20
1.457687
42
-0.165415
0
VERTEX
8
1
10
15.306938
20
2.382141
42
-0.583619
0
VERTEX
8
1
10
15.335876
20
2.355759
42
0.100346
0
VERTEX
8
1
10
14.839180
20
1.739487
0
SEQEND
0
POLYLINE
8
1
66
1
70
1
0
VERTEX
8
1
10
9.016708
20
1.315506
42
-0.648437
0
VERTEX
8
1
10
8.977036
20
1.304886
42
0.043794
0
VERTEX
8
1
10
8.973854
20
2.839844
42
-0.892071
0
VERTEX
8
1
10
9.009712
20
2.877304
42
-0.057580
0
SEQEND
0
POLYLINE
8
1
66
1
70
1
0
VERTEX
8
1
10
13.451920
20
1.491058
42
-0.895728
0
VERTEX
8
1
10
13.407242
20
1.458115
42
0.018761
0
VERTEX
8
1
10
13.527145
20
2.852966
42
-0.586947
0
VERTEX
8
1
10
13.567566
20
2.860977
42
-0.025407
0
SEQEND
0
POLYLINE
8
1
66
1
70
1
0
VERTEX
8
1
10
13.288246
20
1.664337
0
VERTEX
8
1
10
9.179443
20
1.532806
42
-0.716655
0
VERTEX
8
1
10
9.158806
20
1.570755
0
VERTEX
8
1
10
13.261398
20
1.702377
42
-0.810149
0
SEQEND
0
POLYLINE
8
1
66
1
70
1
0
VERTEX
8
1
10
5.752319
20
2.000214
42
-0.529448
0
VERTEX
8
1
10
5.707436
20
1.921555
42
-0.230507
0
VERTEX
8
1
10
5.477280
20
2.013580
42
-0.779445
0
VERTEX
8
1
10
5.483429
20
2.059082
42
0.076849
0
VERTEX
8
1
10
5.671127
20
1.962906
0
VERTEX
8
1
10
5.697929
20
1.965607
0
VERTEX
8
1
10
5.708900
20
1.978561
42
0.074807
0
VERTEX
8
1
10
5.647896
20
2.195587
42
-0.802520
0
VERTEX
8
1
10
5.666771
20
2.243637
42
-0.149319
0
SEQEND
0
POLYLINE
8
1
66
1
70
1
0
VERTEX
8
1
10
5.914963
20
1.786926
42
-0.728933
0
VERTEX
8
1
10
5.901894
20
1.745651
0
VERTEX
8
1
10
5.800056
20
1.838196
42
-0.868429
0
VERTEX
8
1
10
5.800041
20
1.892517
0
SEQEND
0
POLYLINE
8
1
66
1
70
1
0
VERTEX
8
1
10
6.378105
20
2.148300
0
VERTEX
8
1
10
6.377777
20
2.143875
42
-0.118715
0
VERTEX
8
1
10
6.239082
20
2.037781
0
VERTEX
8
1
10
6.163712
20
2.026749
42
-0.298566
0
VERTEX
8
1
10
6.134972
20
2.257782
0
VERTEX
8
1
10
6.145302
20
2.288773
42
-0.982445
0
VERTEX
8
1
10
6.196152
20
2.304779
42
0.132746
0
VERTEX
8
1
10
6.172432
20
2.085739
0
VERTEX
8
1
10
6.187988
20
2.068085
42
0.122217
0
VERTEX
8
1
10
6.343338
20
2.169006
42
-0.509710
0
SEQEND
0
POLYLINE
8
1
66
1
70
1
0
VERTEX
8
1
10
6.088348
20
1.825089
42
-0.921534
0
VERTEX
8
1
10
6.038116
20
1.812973
0
VERTEX
8
1
10
6.095329
20
1.944168
42
-0.863881
0
VERTEX
8
1
10
6.143814
20
1.953857
0
SEQEND
0
POLYLINE
8
1
66
1
70
1
0
VERTEX
8
1
10
6.512505
20
1.434326
42
-0.958117
0
VERTEX
8
1
10
6.511246
20
1.384613
42
-0.135524
0
VERTEX
8
1
10
6.345306
20
1.517944
0
VERTEX
8
1
10
6.333351
20
1.544952
42
-0.277306
0
VERTEX
8
1
10
6.362686
20
1.629013
42
-0.227107
0
VERTEX
8
1
10
6.586639
20
1.687561
42
-0.496906
0
VERTEX
8
1
10
6.594780
20
1.651611
0
VERTEX
8
1
10
6.451408
20
1.633484
42
0.406232
0
VERTEX
8
1
10
6.376541
20
1.556320
42
0.106976
0
SEQEND
0
POLYLINE
8
1
66
1
70
1
0
VERTEX
8
1
10
5.979942
20
1.018219
42
-0.585906
0
VERTEX
8
1
10
5.945770
20
0.998932
42
-0.273021
0
VERTEX
8
1
10
5.998695
20
1.265533
42
-0.441394
0
VERTEX
8
1
10
6.110588
20
1.245804
42
-0.148447
0
VERTEX
8
1
10
6.202873
20
1.050812
42
-0.486561
0
VERTEX
8
1
10
6.168037
20
1.035934
42
0.065390
0
VERTEX
8
1
10
6.072815
20
1.223663
0
VERTEX
8
1
10
6.052475
20
1.234695
0
VERTEX
8
1
10
6.034218
20
1.231430
42
0.229087
0
SEQEND
0
POLYLINE
8
1
66
1
70
1
0
VERTEX
8
1
10
5.617661
20
1.369919
0
VERTEX
8
1
10
5.548134
20
1.285553
42
-0.840639
0
VERTEX
8
1
10
5.490570
20
1.288467
42
0.078058
0
VERTEX
8
1
10
5.617065
20
1.465363
0
VERTEX
8
1
10
5.615639
20
1.485153
42
0.297595
0
VERTEX
8
1
10
5.427834
20
1.492569
42
-0.581836
0
VERTEX
8
1
10
5.401306
20
1.530014
0
VERTEX
8
1
10
5.510208
20
1.559769
42
-0.391243
0
VERTEX
8
1
10
5.663986
20
1.488159
0
SEQEND
0
POLYLINE
8
1
66
1
70
1
0
VERTEX
8
1
10
5.829857
20
1.555267
0
VERTEX
8
1
10
5.741966
20
1.509125
42
-0.842937
0
VERTEX
8
1
10
5.686554
20
1.526489
0
VERTEX
8
1
10
5.792831
20
1.581665
42
-0.799177
0
SEQEND
0
POLYLINE
8
1
66
1
70
1
0
VERTEX
8
1
10
6.055847
20
1.364929
0
VERTEX
8
1
10
6.054260
20
1.344238
42
-0.709277
0
VERTEX
8
1
10
6.015060
20
1.326904
0
VERTEX
8
1
10
6.017052
20
1.447250
42
-0.798073
0
VERTEX
8
1
10
6.055977
20
1.479202
42
-0.162705
0
SEQEND
0
POLYLINE
8
1
66
1
70
1
0
VERTEX
8
1
10
6.242439
20
1.611237
42
-1.782089
0
VERTEX
8
1
10
6.232338
20
1.566986
42
0.107240
0
VERTEX
8
1
10
6.173218
20
1.585739
42
-0.454721
0
VERTEX
8
1
10
6.161781
20
1.624405
42
-0.327621
0
SEQEND
0
POLYLINE
8
1
66
1
70
1
0
VERTEX
8
1
10
5.892616
20
1.638519
42
-1.248687
0
VERTEX
8
1
10
6.040794
20
1.638519
42
-1.248275
0
SEQEND
0
POLYLINE
8
1
66
1
70
1
0
VERTEX
8
1
10
5.929749
20
2.312592
42
0.219551
0
VERTEX
8
1
10
5.735229
20
2.258896
42
0.187259
0
VERTEX
8
1
10
5.849808
20
2.087753
0
VERTEX
8
1
10
5.868019
20
2.089371
0
VERTEX
8
1
10
5.884796
20
2.100250
42
0.152773
0
SEQEND
0
POLYLINE
8
1
66
1
70
1
0
VERTEX
8
1
10
6.508629
20
1.840698
42
0.230647
0
VERTEX
8
1
10
6.424835
20
2.033920
0
VERTEX
8
1
10
6.411163
20
2.036682
42
0.144336
0
VERTEX
8
1
10
6.271111
20
1.877823
42
0.410791
0
VERTEX
8
1
10
6.300087
20
1.836182
42
0.229604
0
SEQEND
0
POLYLINE
8
1
66
1
70
1
0
VERTEX
8
1
10
6.274025
20
1.113220
42
0.127944
0
VERTEX
8
1
10
6.411163
20
1.258896
0
VERTEX
8
1
10
6.279800
20
1.345093
42
0.441358
0
VERTEX
8
1
10
6.182999
20
1.340973
42
0.207391
0
VERTEX
8
1
10
6.255257
20
1.122543
0
SEQEND
0
POLYLINE
8
1
66
1
70
1
0
VERTEX
8
1
10
5.723297
20
1.288803
42
0.170070
0
VERTEX
8
1
10
5.596344
20
1.184814
42
0.077370
0
VERTEX
8
1
10
5.727577
20
1.084106
42
0.308906
0
VERTEX
8
1
10
5.757637
20
1.271088
0
VERTEX
8
1
10
5.741829
20
1.283737
0
SEQEND
0
POLYLINE
8
1
66
1
70
1
0
VERTEX
8
1
10
5.526169
20
1.725159
42
0.402546
0
VERTEX
8
1
10
5.420425
20
1.842224
42
0.193328
0
VERTEX
8
1
10
5.405022
20
1.674774
42
0.199373
0
SEQEND
0
POLYLINE
8
1
66
1
70
1
0
VERTEX
8
1
10
5.348450
20
2.132263
0
VERTEX
8
1
10
5.346603
20
2.135040
42
-0.198624
0
VERTEX
8
1
10
5.860878
20
2.539673
42
-0.360575
0
VERTEX
8
1
10
6.778801
20
2.063095
42
-0.206344
0
VERTEX
8
1
10
6.825439
20
1.346954
42
-0.407789
0
VERTEX
8
1
10
5.923851
20
0.777420
0
VERTEX
8
1
10
5.883080
20
0.784973
42
-0.230502
0
VERTEX
8
1
10
5.346451
20
1.240326
0
VERTEX
8
1
10
5.408318
20
1.203094
42
0.041355
0
VERTEX
8
1
10
5.775871
20
0.963715
42
0.258605
0
VERTEX
8
1
10
6.422462
20
0.998322
42
0.448238
0
VERTEX
8
1
10
6.386185
20
2.306015
42
0.265408
0
VERTEX
8
1
10
5.627235
20
2.334167
42
-0.019353
0
SEQEND
0
POLYLINE
8
1
66
1
70
1
0
VERTEX
8
1
10
5.285034
20
1.476501
42
-0.703456
0
VERTEX
8
1
10
5.248985
20
1.454254
42
-0.148216
0
VERTEX
8
1
10
5.253090
20
1.975067
42
-0.630899
0
VERTEX
8
1
10
5.293869
20
1.968903
42
0.103037
0
SEQEND
0
POLYLINE
8
1
66
1
70
1
0
VERTEX
8
1
10
6.784775
20
0.720276
42
-0.171199
0
VERTEX
8
1
10
6.202721
20
0.483398
42
-0.409183
0
VERTEX
8
1
10
4.918106
20
1.559357
42
-0.691887
0
VERTEX
8
1
10
4.959900
20
1.564743
42
0.154845
0
VERTEX
8
1
10
5.293465
20
0.857864
42
0.377485
0
VERTEX
8
1
10
6.754936
20
0.744003
42
-0.553701
0
SEQEND
0
POLYLINE
8
1
66
1
70
1
0
VERTEX
8
1
10
12.079124
20
1.080246
0
VERTEX
8
1
10
9.167114
20
1.032761
42
-0.748687
0
VERTEX
8
1
10
9.145973
20
1.071793
0
VERTEX
8
1
10
12.057983
20
1.119278
42
-0.749948
0
SEQEND
0
POLYLINE
8
1
66
1
70
1
0
VERTEX
8
1
10
13.192604
20
0.999451
42
-0.037708
0
VERTEX
8
1
10
12.187675
20
0.924164
0
VERTEX
8
1
10
12.166542
20
0.927017
42
-0.759015
0
VERTEX
8
1
10
12.121468
20
0.992767
42
0.431463
0
VERTEX
8
1
10
12.184570
20
1.174103
42
-0.782394
0
VERTEX
8
1
10
12.189507
20
1.230438
42
-0.528085
0
VERTEX
8
1
10
12.169136
20
0.974060
0
VERTEX
8
1
10
12.192772
20
0.968094
42
0.036968
0
VERTEX
8
1
10
13.164474
20
1.040527
0
VERTEX
8
1
10
13.184464
20
1.088608
42
0.533883
0
VERTEX
8
1
10
13.137848
20
1.206360
42
0.034379
0
VERTEX
8
1
10
12.393211
20
1.171234
42
-0.575618
0
VERTEX
8
1
10
12.380920
20
1.209534
42
-0.044017
0
VERTEX
8
1
10
13.061760
20
1.258179
42
-0.282682
0
VERTEX
8
1
10
13.221802
20
1.200058
42
-0.227538
0
SEQEND
0
POLYLINE
8
1
66
1
70
1
0
VERTEX
8
1
10
13.772690
20
1.093384
0
VERTEX
8
1
10
13.378464
20
1.074661
42
-0.781881
0
VERTEX
8
1
10
13.354736
20
1.113831
0
VERTEX
8
1
10
13.745956
20
1.132828
42
-0.867845
0
SEQEND
0
POLYLINE
8
1
66
1
70
1
0
VERTEX
8
1
10
14.264374
20
1.280075
42
-0.793562
0
VERTEX
8
1
10
14.282814
20
1.229752
0
VERTEX
8
1
10
14.142548
20
1.270859
0
VERTEX
8
1
10
13.354080
20
1.255157
42
-0.875821
0
VERTEX
8
1
10
13.327736
20
1.295044
0
VERTEX
8
1
10
13.985100
20
1.313065
42
-0.146085
0
SEQEND
0
POLYLINE
8
1
66
1
70
1
0
VERTEX
8
1
10
19.178169
20
2.151001
0
VERTEX
8
1
10
19.171204
20
2.123154
42
-0.724271
0
VERTEX
8
1
10
19.129044
20
2.114502
0
VERTEX
8
1
10
19.228920
20
2.539490
42
-0.811520
0
VERTEX
8
1
10
19.272919
20
2.552292
0
SEQEND
0
POLYLINE
8
1
66
1
70
1
0
VERTEX
8
1
10
15.864082
20
1.988480
42
-0.582301
0
VERTEX
8
1
10
15.815269
20
1.910706
42
-0.243279
0
VERTEX
8
1
10
15.632118
20
1.969208
42
-0.933430
0
VERTEX
8
1
10
15.633118
20
2.019974
42
0.128394
0
VERTEX
8
1
10
15.805397
20
1.952347
0
VERTEX
8
1
10
15.822212
20
1.962143
42
0.077858
0
VERTEX
8
1
10
15.749992
20
2.161423
42
-0.849844
0
VERTEX
8
1
10
15.768074
20
2.209427
42
-0.142062
0
SEQEND
0
POLYLINE
8
1
66
1
70
1
0
VERTEX
8
1
10
16.012093
20
1.820358
42
-0.877785
0
VERTEX
8
1
10
16.008194
20
1.771362
0
VERTEX
8
1
10
15.904320
20
1.854645
42
-0.779847
0
VERTEX
8
1
10
15.911194
20
1.899612
0
SEQEND
0
POLYLINE
8
1
66
1
70
1
0
VERTEX
8
1
10
16.373177
20
2.201859
0
VERTEX
8
1
10
16.374306
20
2.197266
42
-0.161159
0
VERTEX
8
1
10
16.264191
20
2.076996
42
-0.304904
0
VERTEX
8
1
10
16.200638
20
2.060364
42
-0.282052
0
VERTEX
8
1
10
16.149109
20
2.267242
0
VERTEX
8
1
10
16.153870
20
2.291458
42
-0.806833
0
VERTEX
8
1
10
16.197762
20
2.305679
42
0.093655
0
VERTEX
8
1
10
16.205376
20
2.119461
0
VERTEX
8
1
10
16.220490
20
2.104446
42
0.102956
0
VERTEX
8
1
10
16.318909
20
2.189148
42
-0.781431
0
SEQEND
0
POLYLINE
8
1
66
1
70
1
0
VERTEX
8
1
10
16.164078
20
1.871155
42
-0.986775
0
VERTEX
8
1
10
16.114708
20
1.850235
0
VERTEX
8
1
10
16.152206
20
1.985001
42
-0.743367
0
VERTEX
8
1
10
16.195183
20
1.994949
0
SEQEND
0
POLYLINE
8
1
66
1
70
1
0
VERTEX
8
1
10
16.555992
20
1.551682
42
-1.572823
0
VERTEX
8
1
10
16.534142
20
1.512329
42
0.053116
0
VERTEX
8
1
10
16.446533
20
1.559555
42
-0.372598
0
VERTEX
8
1
10
16.398621
20
1.711182
42
-0.210450
0
VERTEX
8
1
10
16.571960
20
1.794174
42
-0.783642
0
VERTEX
8
1
10
16.603691
20
1.758926
0
VERTEX
8
1
10
16.493042
20
1.731201
42
0.322602
0
VERTEX
8
1
10
16.430481
20
1.659531
42
0.202997
0
SEQEND
0
POLYLINE
8
1
66
1
70
1
0
VERTEX
8
1
10
16.147957
20
1.124451
42
-0.906959
0
VERTEX
8
1
10
16.113670
20
1.088562
42
-0.193421
0
VERTEX
8
1
10
16.128906
20
1.333633
42
-0.514644
0
VERTEX
8
1
10
16.242645
20
1.329193
42
-0.145133
0
VERTEX
8
1
10
16.333519
20
1.159805
42
-0.506184
0
VERTEX
8
1
10
16.300606
20
1.144119
42
0.112164
0
VERTEX
8
1
10
16.190315
20
1.313766
0
VERTEX
8
1
10
16.175789
20
1.311676
42
0.197648
0
SEQEND
0
POLYLINE
8
1
66
1
70
1
0
VERTEX
8
1
10
15.790344
20
1.352325
0
VERTEX
8
1
10
15.749649
20
1.295013
42
-0.691714
0
VERTEX
8
1
10
15.706566
20
1.302963
42
0.012862
0
VERTEX
8
1
10
15.784485
20
1.446121
42
0.613377
0
VERTEX
8
1
10
15.772911
20
1.513428
42
0.295859
0
VERTEX
8
1
10
15.647530
20
1.488983
42
-0.695062
0
VERTEX
8
1
10
15.608139
20
1.520294
0
VERTEX
8
1
10
15.710136
20
1.562668
42
-0.413806
0
VERTEX
8
1
10
15.840508
20
1.505463
42
-0.155300
0
SEQEND
0
POLYLINE
8
1
66
1
70
1
0
VERTEX
8
1
10
15.971527
20
1.587585
0
VERTEX
8
1
10
15.890335
20
1.528366
42
-0.719037
0
VERTEX
8
1
10
15.846962
20
1.542496
42
-0.158933
0
VERTEX
8
1
10
15.929512
20
1.608475
42
-0.863959
0
SEQEND
0
POLYLINE
8
1
66
1
70
1
0
VERTEX
8
1
10
16.181076
20
1.410461
42
-0.921903
0
VERTEX
8
1
10
16.138649
20
1.411423
42
-0.157619
0
VERTEX
8
1
10
16.133156
20
1.501312
42
-0.814021
0
VERTEX
8
1
10
16.167603
20
1.544647
42
-0.091523
0
SEQEND
0
POLYLINE
8
1
66
1
70
1
0
VERTEX
8
1
10
16.321747
20
1.683716
42
-1.386727
0
VERTEX
8
1
10
16.300819
20
1.642807
42
-0.038742
0
VERTEX
8
1
10
16.241714
20
1.660553
42
-0.674767
0
VERTEX
8
1
10
16.253548
20
1.696884
42
-0.201000
0
SEQEND
0
POLYLINE
8
1
66
1
70
1
0
VERTEX
8
1
10
16.012581
20
1.690323
42
-0.367804
0
VERTEX
8
1
10
16.066269
20
1.766586
42
-0.613697
0
VERTEX
8
1
10
16.107918
20
1.604996
42
-0.622377
0
SEQEND
0
POLYLINE
8
1
66
1
70
1
0
VERTEX
8
1
10
15.978607
20
2.298538
42
0.266857
0
VERTEX
8
1
10
15.820221
20
2.230148
42
0.209160
0
VERTEX
8
1
10
15.937836
20
2.084167
0
VERTEX
8
1
10
15.953140
20
2.090836
42
0.172516
0
SEQEND
0
POLYLINE
8
1
66
1
70
1
0
VERTEX
8
1
10
16.512672
20
1.940872
42
0.257442
0
VERTEX
8
1
10
16.409523
20
2.097336
42
0.169251
0
VERTEX
8
1
10
16.308586
20
1.924759
0
VERTEX
8
1
10
16.315643
20
1.910202
42
0.305164
0
VERTEX
8
1
10
16.512093
20
1.929443
0
SEQEND
0
POLYLINE
8
1
66
1
70
1
0
VERTEX
8
1
10
16.375816
20
1.224304
42
0.150007
0
VERTEX
8
1
10
16.485703
20
1.377396
0
VERTEX
8
1
10
16.378891
20
1.438202
42
0.452490
0
VERTEX
8
1
10
16.287086
20
1.431244
42
0.203286
0
SEQEND
0
POLYLINE
8
1
66
1
70
1
0
VERTEX
8
1
10
15.899368
20
1.330200
42
0.122246
0
VERTEX
8
1
10
15.808784
20
1.220993
42
0.101248
0
VERTEX
8
1
10
15.935371
20
1.141708
42
0.266406
0
VERTEX
8
1
10
15.932320
20
1.321442
0
VERTEX
8
1
10
15.915436
20
1.330261
0
SEQEND
0
POLYLINE
8
1
66
1
70
1
0
VERTEX
8
1
10
15.698189
20
1.716461
42
0.388514
0
VERTEX
8
1
10
15.596664
20
1.810516
42
0.164408
0
VERTEX
8
1
10
15.597450
20
1.654251
42
0.231294
0
SEQEND
0
POLYLINE
8
1
66
1
70
1
0
VERTEX
8
1
10
16.406364
20
2.476364
42
-0.083538
0
VERTEX
8
1
10
17.150078
20
2.148468
0
VERTEX
8
1
10
17.187965
20
2.135651
42
0.139666
0
VERTEX
8
1
10
17.010735
20
2.347687
42
0.243882
0
VERTEX
8
1
10
15.684196
20
2.657928
42
0.274696
0
VERTEX
8
1
10
15.481285
20
2.519608
0
VERTEX
8
1
10
15.480606
20
2.499634
42
-0.101801
0
VERTEX
8
1
10
15.954140
20
2.547882
0
VERTEX
8
1
10
16.024765
20
2.542404
0
VERTEX
8
1
10
16.041489
20
2.539459
42
0.105078
0
VERTEX
8
1
10
15.875298
20
2.490158
42
0.187873
0
VERTEX
8
1
10
15.506287
20
2.072815
0
VERTEX
8
1
10
15.508682
20
2.071045
0
VERTEX
8
1
10
15.745171
20
2.305603
42
-0.273486
0
VERTEX
8
1
10
16.355873
20
2.347809
0
VERTEX
8
1
10
16.383820
20
2.329575
42
-0.393161
0
VERTEX
8
1
10
16.526573
20
1.143463
42
-0.312489
0
VERTEX
8
1
10
15.929482
20
1.056274
0
VERTEX
8
1
10
15.895844
20
1.070343
0
VERTEX
8
1
10
15.593460
20
1.245422
42
0.252427
0
VERTEX
8
1
10
16.118019
20
0.877136
42
0.360564
0
VERTEX
8
1
10
16.781738
20
1.332230
0
VERTEX
8
1
10
16.800400
20
1.391754
42
0.282576
0
VERTEX
8
1
10
16.559227
20
2.369690
42
0.062473
0
SEQEND
0
POLYLINE
8
1
66
1
70
1
0
VERTEX
8
1
10
16.633926
20
0.731750
42
-0.362370
0
VERTEX
8
1
10
15.480164
20
0.853760
42
-0.268738
0
VERTEX
8
1
10
15.163918
20
1.987732
42
-0.976352
0
VERTEX
8
1
10
15.212044
20
2.007355
42
0.256974
0
VERTEX
8
1
10
15.491722
20
0.895874
42
0.341290
0
VERTEX
8
1
10
16.587585
20
0.748489
42
-0.827410
0
SEQEND
0
POLYLINE
8
1
66
1
70
1
0
VERTEX
8
1
10
16.659348
20
8.380005
42
-0.083538
0
VERTEX
8
1
10
17.403061
20
8.052109
0
VERTEX
8
1
10
17.440948
20
8.039291
42
0.139666
0
VERTEX
8
1
10
17.263718
20
8.251328
42
0.243882
0
VERTEX
8
1
10
15.937180
20
8.561569
42
0.274696
0
VERTEX
8
1
10
15.734268
20
8.423248
0
VERTEX
8
1
10
15.733589
20
8.403275
42
-0.101800
0
VERTEX
8
1
10
16.207123
20
8.451523
0
VERTEX
8
1
10
16.277748
20
8.446045
0
VERTEX
8
1
10
16.294472
20
8.443100
42
0.105078
0
VERTEX
8
1
10
16.128281
20
8.393799
42
0.187873
0
VERTEX
8
1
10
15.759270
20
7.976456
0
VERTEX
8
1
10
15.761665
20
7.974686
0
VERTEX
8
1
10
15.998154
20
8.209244
42
-0.273486
0
VERTEX
8
1
10
16.608856
20
8.251450
0
VERTEX
8
1
10
16.636803
20
8.233215
42
-0.393162
0
VERTEX
8
1
10
16.779556
20
7.047104
42
-0.312489
0
VERTEX
8
1
10
16.182465
20
6.959915
0
VERTEX
8
1
10
16.148827
20
6.973984
0
VERTEX
8
1
10
15.846443
20
7.149063
42
0.252427
0
VERTEX
8
1
10
16.371002
20
6.780777
42
0.360564
0
VERTEX
8
1
10
17.034721
20
7.235870
0
VERTEX
8
1
10
17.053383
20
7.295395
42
0.282576
0
VERTEX
8
1
10
16.812210
20
8.273331
42
0.062473
0
SEQEND
0
ENDSEC
0
EOF
