0
SECTION
2
HEADER
9
$EXTMIN
10
1.207825
20
0.478485
9
$EXTMAX
10
18.178581
20
17.650589
0
ENDSEC
0
SECTION
2
TABLES
0
TABLE
2
LTYPE
70
1
0
LTYPE
2
0
70
0
3
Solid Line
72
65
73
0
40
0.0
0
ENDTAB
0
TABLE
2
LAYER
70
1
0
LAYER
2
1
70
0
62
7
6
0
0
ENDTAB
0
ENDSEC
0
SECTION
2
BLOCKS
0
ENDSEC
0
SECTION
2
ENTITIES
0
POLYLINE
8
1
66
1
70
1
0
VERTEX
8
1
10
17.631012
20
12.198242
0
VERTEX
8
1
10
17.631012
20
12.883392
0
VERTEX
8
1
10
17.626419
20
12.891251
42
0.078894
0
VERTEX
8
1
10
17.397057
20
12.958817
0
VERTEX
8
1
10
17.339348
20
12.958466
0
VERTEX
8
1
10
17.270477
20
12.955643
42
-0.026699
0
VERTEX
8
1
10
16.879669
20
12.987473
0
VERTEX
8
1
10
16.728966
20
13.124481
0
VERTEX
8
1
10
16.722549
20
13.163925
0
VERTEX
8
1
10
16.705925
20
13.212021
0
VERTEX
8
1
10
16.671364
20
13.269363
0
VERTEX
8
1
10
16.612289
20
13.328262
0
VERTEX
8
1
10
16.522156
20
13.380966
42
-0.009481
0
VERTEX
8
1
10
16.337227
20
13.441452
42
0.014680
0
VERTEX
8
1
10
16.298553
20
13.492783
0
VERTEX
8
1
10
16.301811
20
13.513550
42
0.520567
0
VERTEX
8
1
10
16.257599
20
13.555679
0
VERTEX
8
1
10
16.172783
20
13.569565
0
VERTEX
8
1
10
16.148331
20
13.630463
0
VERTEX
8
1
10
16.148666
20
13.631363
42
-0.106891
0
VERTEX
8
1
10
16.178055
20
13.652802
42
0.091964
0
VERTEX
8
1
10
16.299416
20
13.736328
0
VERTEX
8
1
10
16.328049
20
13.779755
0
VERTEX
8
1
10
16.337700
20
13.830429
0
VERTEX
8
1
10
16.320572
20
13.888046
0
VERTEX
8
1
10
16.274101
20
13.955856
42
0.092914
0
VERTEX
8
1
10
16.103226
20
14.125153
0
VERTEX
8
1
10
16.084206
20
14.149857
42
0.126567
0
VERTEX
8
1
10
16.166229
20
14.356583
42
0.122573
0
VERTEX
8
1
10
16.139145
20
14.724106
0
VERTEX
8
1
10
16.110565
20
14.787064
0
VERTEX
8
1
10
16.075912
20
14.836197
0
VERTEX
8
1
10
16.036324
20
14.869232
42
0.230017
0
VERTEX
8
1
10
15.618904
20
14.877075
42
0.059314
0
VERTEX
8
1
10
15.557335
20
14.834824
0
VERTEX
8
1
10
15.547981
20
14.846970
0
VERTEX
8
1
10
15.485588
20
14.909470
0
VERTEX
8
1
10
15.484634
20
14.925781
0
VERTEX
8
1
10
15.471161
20
14.997955
0
VERTEX
8
1
10
15.422485
20
15.113678
0
VERTEX
8
1
10
15.316032
20
15.256683
0
VERTEX
8
1
10
15.129280
20
15.410706
0
VERTEX
8
1
10
14.839653
20
15.559479
0
VERTEX
8
1
10
14.449463
20
15.681030
0
VERTEX
8
1
10
14.409355
20
15.694397
0
VERTEX
8
1
10
14.371857
20
15.694580
0
VERTEX
8
1
10
14.371788
20
15.740875
0
VERTEX
8
1
10
14.403671
20
15.740875
0
VERTEX
8
1
10
14.404160
20
15.742157
0
VERTEX
8
1
10
14.404160
20
15.814896
0
VERTEX
8
1
10
14.100525
20
15.814957
0
VERTEX
8
1
10
14.089363
20
15.814651
0
VERTEX
8
1
10
14.089363
20
15.741592
0
VERTEX
8
1
10
14.090263
20
15.740891
0
VERTEX
8
1
10
14.126381
20
15.740875
0
VERTEX
8
1
10
14.126381
20
15.695831
0
VERTEX
8
1
10
14.125870
20
15.694565
0
VERTEX
8
1
10
14.061920
20
15.694580
0
VERTEX
8
1
10
13.995766
20
15.734070
0
VERTEX
8
1
10
13.991417
20
15.736252
0
VERTEX
8
1
10
12.399185
20
15.749863
0
VERTEX
8
1
10
12.363686
20
15.762054
42
0.008681
0
VERTEX
8
1
10
12.094833
20
16.643005
0
VERTEX
8
1
10
12.052879
20
16.753860
42
0.064822
0
VERTEX
8
1
10
11.893990
20
16.987473
0
VERTEX
8
1
10
11.774414
20
17.097061
0
VERTEX
8
1
10
11.604309
20
17.210526
0
VERTEX
8
1
10
11.373390
20
17.320480
0
VERTEX
8
1
10
11.087700
20
17.411774
42
0.013104
0
VERTEX
8
1
10
10.103584
20
17.591248
0
VERTEX
8
1
10
9.987274
20
17.604935
0
VERTEX
8
1
10
9.730621
20
17.621094
42
0.019876
0
VERTEX
8
1
10
7.937836
20
17.640793
0
VERTEX
8
1
10
7.512199
20
17.614532
0
VERTEX
8
1
10
7.345787
20
17.590454
0
VERTEX
8
1
10
7.180885
20
17.553268
0
VERTEX
8
1
10
7.009727
20
17.491257
0
VERTEX
8
1
10
6.846855
20
17.394501
0
VERTEX
8
1
10
6.706841
20
17.253006
0
VERTEX
8
1
10
6.604225
20
17.056763
0
VERTEX
8
1
10
6.556427
20
16.815414
42
0.009714
0
VERTEX
8
1
10
6.491760
20
15.497345
0
VERTEX
8
1
10
6.478241
20
15.393646
0
VERTEX
8
1
10
6.102951
20
15.379700
42
0.443757
0
VERTEX
8
1
10
6.079201
20
15.334045
0
VERTEX
8
1
10
6.068855
20
15.329178
0
VERTEX
8
1
10
5.755997
20
15.338776
0
VERTEX
8
1
10
5.792816
20
15.355682
42
0.028007
0
VERTEX
8
1
10
5.711884
20
15.511948
0
VERTEX
8
1
10
5.634903
20
15.467361
42
0.011883
0
VERTEX
8
1
10
5.566925
20
15.565262
0
VERTEX
8
1
10
5.644859
20
15.619019
42
0.029950
0
VERTEX
8
1
10
5.535851
20
15.759598
0
VERTEX
8
1
10
5.461823
20
15.694397
0
VERTEX
8
1
10
5.460564
20
15.694229
42
0.019121
0
VERTEX
8
1
10
5.379028
20
15.779129
0
VERTEX
8
1
10
5.446411
20
15.851593
42
0.039933
0
VERTEX
8
1
10
5.304688
20
15.964355
0
VERTEX
8
1
10
5.248894
20
15.881851
42
0.032543
0
VERTEX
8
1
10
5.147217
20
15.941406
0
VERTEX
8
1
10
5.191643
20
16.030640
42
0.052633
0
VERTEX
8
1
10
5.018898
20
16.096832
0
VERTEX
8
1
10
4.992760
20
16.000687
42
0.040754
0
VERTEX
8
1
10
4.877083
20
16.022598
0
VERTEX
8
1
10
4.887939
20
16.121674
42
0.057046
0
VERTEX
8
1
10
4.701439
20
16.121674
0
VERTEX
8
1
10
4.711952
20
16.022537
42
0.038896
0
VERTEX
8
1
10
4.596001
20
16.001755
0
VERTEX
8
1
10
4.571518
20
16.098358
42
0.050439
0
VERTEX
8
1
10
4.398575
20
16.037033
0
VERTEX
8
1
10
4.440086
20
15.946411
42
0.028403
0
VERTEX
8
1
10
4.335976
20
15.890915
0
VERTEX
8
1
10
4.284119
20
15.975754
0
VERTEX
8
1
10
4.283569
20
15.975708
42
0.037235
0
VERTEX
8
1
10
4.137314
20
15.871368
0
VERTEX
8
1
10
4.200790
20
15.794510
0
VERTEX
8
1
10
4.152405
20
15.752396
0
VERTEX
8
1
10
4.113106
20
15.715149
0
VERTEX
8
1
10
4.042809
20
15.785828
42
0.030988
0
VERTEX
8
1
10
3.924660
20
15.653412
0
VERTEX
8
1
10
4.001236
20
15.591965
0
VERTEX
8
1
10
4.001785
20
15.590714
42
0.013304
0
VERTEX
8
1
10
3.931023
20
15.496384
0
VERTEX
8
1
10
3.849983
20
15.552109
0
VERTEX
8
1
10
3.848648
20
15.551468
42
0.024767
0
VERTEX
8
1
10
3.756699
20
15.402954
0
VERTEX
8
1
10
3.761971
20
15.399994
0
VERTEX
8
1
10
1.433746
20
15.471176
0
VERTEX
8
1
10
1.393280
20
15.471466
42
0.219307
0
VERTEX
8
1
10
1.344322
20
15.408768
0
VERTEX
8
1
10
1.350227
20
15.381653
0
VERTEX
8
1
10
1.375648
20
15.351669
42
0.020267
0
VERTEX
8
1
10
1.469406
20
15.340683
0
VERTEX
8
1
10
1.471344
20
15.335739
0
VERTEX
8
1
10
1.486748
20
14.010803
0
VERTEX
8
1
10
1.484245
20
13.997025
42
0.048491
0
VERTEX
8
1
10
1.342445
20
13.999603
42
0.253225
0
VERTEX
8
1
10
1.229149
20
13.919113
42
0.384425
0
VERTEX
8
1
10
1.288322
20
13.677963
0
VERTEX
8
1
10
1.320892
20
13.664291
0
VERTEX
8
1
10
1.354362
20
13.659882
0
VERTEX
8
1
10
1.454132
20
13.659866
42
0.069398
0
VERTEX
8
1
10
1.489738
20
13.664474
0
VERTEX
8
1
10
1.490837
20
13.660202
0
VERTEX
8
1
10
1.491982
20
13.548767
0
VERTEX
8
1
10
1.410019
20
13.548752
0
VERTEX
8
1
10
1.408791
20
13.547775
0
VERTEX
8
1
10
1.408791
20
13.493240
0
VERTEX
8
1
10
1.281456
20
13.493195
0
VERTEX
8
1
10
1.276855
20
13.491470
0
VERTEX
8
1
10
1.276848
20
13.101074
0
VERTEX
8
1
10
1.278908
20
13.097031
0
VERTEX
8
1
10
1.360184
20
13.083466
0
VERTEX
8
1
10
1.860420
20
13.083466
0
VERTEX
8
1
10
1.874077
20
13.082657
42
0.173910
0
VERTEX
8
1
10
1.906937
20
12.992050
0
VERTEX
8
1
10
1.929001
20
12.980652
42
0.036105
0
VERTEX
8
1
10
2.020210
20
12.976166
42
0.015791
0
VERTEX
8
1
10
1.996124
20
12.820007
0
VERTEX
8
1
10
2.095078
20
12.807983
0
VERTEX
8
1
10
2.088951
20
12.751999
0
VERTEX
8
1
10
2.083733
20
12.686020
0
VERTEX
8
1
10
1.984283
20
12.692734
42
0.018687
0
VERTEX
8
1
10
1.978317
20
12.514236
0
VERTEX
8
1
10
2.077698
20
12.513824
42
0.015316
0
VERTEX
8
1
10
2.081062
20
12.391418
0
VERTEX
8
1
10
1.981552
20
12.385941
42
0.019889
0
VERTEX
8
1
10
1.998192
20
12.207047
0
VERTEX
8
1
10
2.097000
20
12.220123
42
0.013009
0
VERTEX
8
1
10
2.116234
20
12.099106
0
VERTEX
8
1
10
2.018318
20
12.080460
42
0.018140
0
VERTEX
8
1
10
2.058884
20
11.905396
0
VERTEX
8
1
10
2.155029
20
11.931473
42
0.011943
0
VERTEX
8
1
10
2.190559
20
11.814407
0
VERTEX
8
1
10
2.188217
20
11.813324
0
VERTEX
8
1
10
2.096153
20
11.782440
42
0.017949
0
VERTEX
8
1
10
2.160431
20
11.614014
0
VERTEX
8
1
10
2.251999
20
11.653427
42
0.016190
0
VERTEX
8
1
10
2.304100
20
11.542572
0
VERTEX
8
1
10
2.215233
20
11.497406
42
0.024416
0
VERTEX
8
1
10
2.304550
20
11.339752
0
VERTEX
8
1
10
2.388687
20
11.392944
0
VERTEX
8
1
10
2.424194
20
11.339279
0
VERTEX
8
1
10
2.457840
20
11.292282
0
VERTEX
8
1
10
2.456245
20
11.290680
0
VERTEX
8
1
10
2.377968
20
11.232651
42
0.036102
0
VERTEX
8
1
10
2.496155
20
11.092773
0
VERTEX
8
1
10
2.567757
20
11.159988
0
VERTEX
8
1
10
2.568192
20
11.159973
42
0.016971
0
VERTEX
8
1
10
2.655319
20
11.074585
0
VERTEX
8
1
10
2.590248
20
11.000900
0
VERTEX
8
1
10
2.589836
20
10.999985
42
0.036357
0
VERTEX
8
1
10
2.737953
20
10.887314
0
VERTEX
8
1
10
2.792030
20
10.971039
42
0.027321
0
VERTEX
8
1
10
2.898354
20
10.911591
0
VERTEX
8
1
10
2.855400
20
10.821640
42
0.049731
0
VERTEX
8
1
10
3.034836
20
10.757172
0
VERTEX
8
1
10
3.058975
20
10.853577
42
0.036673
0
VERTEX
8
1
10
3.178711
20
10.833206
0
VERTEX
8
1
10
3.170181
20
10.733887
42
0.054138
0
VERTEX
8
1
10
3.361397
20
10.737579
0
VERTEX
8
1
10
3.349503
20
10.836533
42
0.033882
0
VERTEX
8
1
10
3.469101
20
10.859650
0
VERTEX
8
1
10
3.494942
20
10.763367
42
0.048946
0
VERTEX
8
1
10
3.672363
20
10.829544
0
VERTEX
8
1
10
3.629234
20
10.919403
42
0.030014
0
VERTEX
8
1
10
3.735657
20
10.978973
0
VERTEX
8
1
10
3.789558
20
10.895111
42
0.040284
0
VERTEX
8
1
10
3.937965
20
11.007950
0
VERTEX
8
1
10
3.871979
20
11.082657
42
0.014037
0
VERTEX
8
1
10
3.959564
20
11.167404
0
VERTEX
8
1
10
3.963074
20
11.164688
0
VERTEX
8
1
10
4.032402
20
11.100342
42
0.030635
0
VERTEX
8
1
10
4.148849
20
11.242493
0
VERTEX
8
1
10
4.077606
20
11.293961
0
VERTEX
8
1
10
4.073700
20
11.297607
42
0.013433
0
VERTEX
8
1
10
4.145226
20
11.397125
0
VERTEX
8
1
10
4.220985
20
11.351395
42
0.025307
0
VERTEX
8
1
10
4.306595
20
11.511795
0
VERTEX
8
1
10
4.230568
20
11.547836
42
0.013437
0
VERTEX
8
1
10
4.282982
20
11.659927
0
VERTEX
8
1
10
4.357468
20
11.630814
0
VERTEX
8
1
10
4.358070
20
11.630966
42
0.022409
0
VERTEX
8
1
10
4.415688
20
11.802094
0
VERTEX
8
1
10
4.343323
20
11.823044
42
0.000253
0
VERTEX
8
1
10
4.375183
20
11.940735
0
VERTEX
8
1
10
4.379211
20
11.942078
0
VERTEX
8
1
10
4.447952
20
11.926758
42
0.021017
0
VERTEX
8
1
10
4.479652
20
12.104126
0
VERTEX
8
1
10
4.413849
20
12.113220
0
VERTEX
8
1
10
4.410294
20
12.114365
0
VERTEX
8
1
10
4.417618
20
12.164185
0
VERTEX
8
1
10
4.428627
20
12.162064
42
0.147602
0
VERTEX
8
1
10
4.793640
20
12.068832
0
VERTEX
8
1
10
4.892014
20
12.076691
0
VERTEX
8
1
10
4.959709
20
12.090347
42
0.200722
0
VERTEX
8
1
10
5.041321
20
12.149918
0
VERTEX
8
1
10
5.059425
20
12.171219
0
VERTEX
8
1
10
5.089577
20
12.188141
42
-0.023821
0
VERTEX
8
1
10
5.316460
20
12.187729
0
VERTEX
8
1
10
5.318512
20
12.190231
0
VERTEX
8
1
10
5.318512
20
12.326431
0
VERTEX
8
1
10
5.909019
20
12.326523
0
VERTEX
8
1
10
5.929558
20
12.325699
42
0.097298
0
VERTEX
8
1
10
5.945679
20
12.199677
0
VERTEX
8
1
10
5.965973
20
12.164978
0
VERTEX
8
1
10
5.997894
20
12.142715
0
VERTEX
8
1
10
6.018532
20
12.138428
42
0.010793
0
VERTEX
8
1
10
6.186302
20
12.133591
0
VERTEX
8
1
10
6.133209
20
12.115677
42
0.020474
0
VERTEX
8
1
10
6.197411
20
11.947464
0
VERTEX
8
1
10
6.287827
20
11.986313
0
VERTEX
8
1
10
6.289238
20
11.986237
42
0.011561
0
VERTEX
8
1
10
6.340652
20
11.875641
0
VERTEX
8
1
10
6.252296
20
11.830704
42
0.024544
0
VERTEX
8
1
10
6.341599
20
11.673050
0
VERTEX
8
1
10
6.425880
20
11.726273
0
VERTEX
8
1
10
6.456230
20
11.680008
0
VERTEX
8
1
10
6.495071
20
11.625336
0
VERTEX
8
1
10
6.415039
20
11.565933
42
0.028844
0
VERTEX
8
1
10
6.532303
20
11.425354
0
VERTEX
8
1
10
6.605019
20
11.493515
42
0.021715
0
VERTEX
8
1
10
6.692551
20
11.408279
0
VERTEX
8
1
10
6.626656
20
11.333511
42
0.036166
0
VERTEX
8
1
10
6.775093
20
11.220779
0
VERTEX
8
1
10
6.828934
20
11.304459
42
0.027793
0
VERTEX
8
1
10
6.935196
20
11.245026
0
VERTEX
8
1
10
6.892494
20
11.154968
42
0.050676
0
VERTEX
8
1
10
7.071625
20
11.090271
0
VERTEX
8
1
10
7.095955
20
11.186859
42
0.037663
0
VERTEX
8
1
10
7.215881
20
11.166519
0
VERTEX
8
1
10
7.207092
20
11.067215
42
0.054319
0
VERTEX
8
1
10
7.398537
20
11.070923
0
VERTEX
8
1
10
7.386543
20
11.169876
42
0.033469
0
VERTEX
8
1
10
7.506172
20
11.192886
0
VERTEX
8
1
10
7.532127
20
11.096725
42
0.047988
0
VERTEX
8
1
10
7.709496
20
11.162933
0
VERTEX
8
1
10
7.666275
20
11.252762
42
0.028753
0
VERTEX
8
1
10
7.772766
20
11.312225
0
VERTEX
8
1
10
7.826744
20
11.228561
42
0.040524
0
VERTEX
8
1
10
7.975060
20
11.341339
0
VERTEX
8
1
10
7.909065
20
11.416016
42
0.024390
0
VERTEX
8
1
10
7.996353
20
11.501450
0
VERTEX
8
1
10
8.069435
20
11.433655
42
0.030641
0
VERTEX
8
1
10
8.185867
20
11.575806
0
VERTEX
8
1
10
8.105064
20
11.634186
42
0.014854
0
VERTEX
8
1
10
8.172600
20
11.736115
0
VERTEX
8
1
10
8.257957
20
11.684631
42
0.025683
0
VERTEX
8
1
10
8.343666
20
11.845230
0
VERTEX
8
1
10
8.253571
20
11.887833
42
0.015657
0
VERTEX
8
1
10
8.302109
20
12.000214
0
VERTEX
8
1
10
8.394974
20
11.963989
42
0.019359
0
VERTEX
8
1
10
8.447166
20
12.115784
0
VERTEX
8
1
10
8.474754
20
12.114807
0
VERTEX
8
1
10
8.665703
20
12.104309
0
VERTEX
8
1
10
8.659004
20
12.259018
0
VERTEX
8
1
10
8.660645
20
12.264023
0
VERTEX
8
1
10
8.973862
20
12.264023
0
VERTEX
8
1
10
8.975716
20
12.261520
42
0.015572
0
VERTEX
8
1
10
8.948929
20
12.117157
0
VERTEX
8
1
10
9.047348
20
12.102173
42
0.015927
0
VERTEX
8
1
10
9.027176
20
11.934250
0
VERTEX
8
1
10
8.927887
20
11.942810
42
0.030783
0
VERTEX
8
1
10
8.917923
20
11.697571
0
VERTEX
8
1
10
9.015793
20
11.696976
42
0.010760
0
VERTEX
8
1
10
9.020042
20
11.527786
0
VERTEX
8
1
10
8.921875
20
11.521820
0
VERTEX
8
1
10
8.921326
20
11.521286
42
0.026012
0
VERTEX
8
1
10
8.948578
20
11.276672
42
0.002330
0
VERTEX
8
1
10
9.046989
20
11.291946
42
0.010394
0
VERTEX
8
1
10
9.078827
20
11.125717
0
VERTEX
8
1
10
8.982986
20
11.103912
0
VERTEX
8
1
10
8.982613
20
11.103271
42
0.027238
0
VERTEX
8
1
10
9.049843
20
10.866501
0
VERTEX
8
1
10
9.144447
20
10.897400
42
0.015795
0
VERTEX
8
1
10
9.203789
20
10.738708
0
VERTEX
8
1
10
9.111641
20
10.701202
42
0.025222
0
VERTEX
8
1
10
9.217560
20
10.477844
0
VERTEX
8
1
10
9.304382
20
10.523239
0
VERTEX
8
1
10
9.305862
20
10.522980
42
0.017029
0
VERTEX
8
1
10
9.390533
20
10.377136
0
VERTEX
8
1
10
9.305984
20
10.324921
42
0.025234
0
VERTEX
8
1
10
9.449104
20
10.121857
0
VERTEX
8
1
10
9.527740
20
10.182449
42
0.022839
0
VERTEX
8
1
10
9.638046
20
10.053467
0
VERTEX
8
1
10
9.564598
20
9.986816
42
0.027566
0
VERTEX
8
1
10
9.744743
20
9.813156
0
VERTEX
8
1
10
9.809708
20
9.887939
0
VERTEX
8
1
10
9.878403
20
9.832397
0
VERTEX
8
1
10
9.944359
20
9.783966
0
VERTEX
8
1
10
9.886780
20
9.703522
42
0.037007
0
VERTEX
8
1
10
10.103752
20
9.573853
0
VERTEX
8
1
10
10.148621
20
9.660385
0
VERTEX
8
1
10
10.149269
20
9.661057
42
0.026504
0
VERTEX
8
1
10
10.304802
20
9.592392
0
VERTEX
8
1
10
10.270088
20
9.502029
0
VERTEX
8
1
10
10.269630
20
9.500183
42
0.039066
0
VERTEX
8
1
10
10.514992
20
9.429718
0
VERTEX
8
1
10
10.533928
20
9.524109
0
VERTEX
8
1
10
10.534821
20
9.526382
42
0.030494
0
VERTEX
8
1
10
10.703384
20
9.503906
0
VERTEX
8
1
10
10.696388
20
9.405594
0
VERTEX
8
1
10
10.697952
20
9.405411
42
0.052321
0
VERTEX
8
1
10
10.951790
20
9.410782
0
VERTEX
8
1
10
10.942505
20
9.507523
0
VERTEX
8
1
10
10.942909
20
9.507874
42
0.030894
0
VERTEX
8
1
10
11.111168
20
9.532822
0
VERTEX
8
1
10
11.131416
20
9.437653
0
VERTEX
8
1
10
11.132019
20
9.436813
42
0.040414
0
VERTEX
8
1
10
11.375977
20
9.507507
0
VERTEX
8
1
10
11.340729
20
9.599533
42
0.022707
0
VERTEX
8
1
10
11.496689
20
9.667999
0
VERTEX
8
1
10
11.541855
20
9.580063
42
0.039332
0
VERTEX
8
1
10
11.758904
20
9.709885
0
VERTEX
8
1
10
11.702362
20
9.789368
0
VERTEX
8
1
10
11.701942
20
9.790390
42
0.037818
0
VERTEX
8
1
10
11.836365
20
9.894150
0
VERTEX
8
1
10
11.901321
20
9.819397
42
0.034144
0
VERTEX
8
1
10
12.081223
20
9.994202
0
VERTEX
8
1
10
12.008179
20
10.059326
0
VERTEX
8
1
10
12.007675
20
10.060150
42
0.020333
0
VERTEX
8
1
10
12.116180
20
10.190079
0
VERTEX
8
1
10
12.195686
20
10.130936
42
0.033228
0
VERTEX
8
1
10
12.335274
20
10.337524
0
VERTEX
8
1
10
12.251984
20
10.385925
0
VERTEX
8
1
10
12.255310
20
10.395554
42
0.017925
0
VERTEX
8
1
10
12.332207
20
10.528610
0
VERTEX
8
1
10
12.338173
20
10.532639
0
VERTEX
8
1
10
12.419487
20
10.493607
42
0.026012
0
VERTEX
8
1
10
12.516998
20
10.721817
0
VERTEX
8
1
10
12.437271
20
10.750122
0
VERTEX
8
1
10
12.437988
20
10.758728
42
0.016812
0
VERTEX
8
1
10
12.489464
20
10.904175
0
VERTEX
8
1
10
12.494247
20
10.911072
0
VERTEX
8
1
10
12.570549
20
10.890137
42
0.025948
0
VERTEX
8
1
10
12.625137
20
11.131317
0
VERTEX
8
1
10
12.552139
20
11.143768
0
VERTEX
8
1
10
12.552689
20
11.149902
0
VERTEX
8
1
10
12.563675
20
11.207657
42
0.043486
0
VERTEX
8
1
10
12.969940
20
11.695389
0
VERTEX
8
1
10
13.066551
20
11.708420
0
VERTEX
8
1
10
13.071518
20
11.707001
42
0.028162
0
VERTEX
8
1
10
13.134842
20
11.495682
0
VERTEX
8
1
10
13.229469
20
11.525284
42
0.016840
0
VERTEX
8
1
10
13.288803
20
11.373352
0
VERTEX
8
1
10
13.196640
20
11.337387
42
0.026217
0
VERTEX
8
1
10
13.302612
20
11.123581
0
VERTEX
8
1
10
13.389503
20
11.167068
0
VERTEX
8
1
10
13.390900
20
11.166672
42
0.017054
0
VERTEX
8
1
10
13.475533
20
11.027100
0
VERTEX
8
1
10
13.390976
20
10.977112
42
0.029266
0
VERTEX
8
1
10
13.534103
20
10.782684
0
VERTEX
8
1
10
13.612755
20
10.840683
42
0.018852
0
VERTEX
8
1
10
13.723053
20
10.717163
0
VERTEX
8
1
10
13.649605
20
10.653366
42
0.027670
0
VERTEX
8
1
10
13.829750
20
10.487061
0
VERTEX
8
1
10
13.894722
20
10.558670
0
VERTEX
8
1
10
13.963875
20
10.505157
0
VERTEX
8
1
10
14.029305
20
10.459061
0
VERTEX
8
1
10
13.971794
20
10.382080
42
0.037450
0
VERTEX
8
1
10
14.188873
20
10.258179
0
VERTEX
8
1
10
14.233757
20
10.341064
0
VERTEX
8
1
10
14.234344
20
10.341400
42
0.024996
0
VERTEX
8
1
10
14.389732
20
10.275574
0
VERTEX
8
1
10
14.354904
20
10.188705
0
VERTEX
8
1
10
14.354691
20
10.187378
42
0.037670
0
VERTEX
8
1
10
14.599777
20
10.119949
0
VERTEX
8
1
10
14.619064
20
10.210861
0
VERTEX
8
1
10
14.620041
20
10.212433
42
0.028466
0
VERTEX
8
1
10
14.788368
20
10.190750
0
VERTEX
8
1
10
14.781410
20
10.096832
0
VERTEX
8
1
10
14.783066
20
10.096634
42
0.054057
0
VERTEX
8
1
10
15.036736
20
10.102264
0
VERTEX
8
1
10
15.027481
20
10.194611
42
0.025655
0
VERTEX
8
1
10
15.196243
20
10.218338
0
VERTEX
8
1
10
15.216507
20
10.127167
0
VERTEX
8
1
10
15.217140
20
10.126724
42
0.038890
0
VERTEX
8
1
10
15.460991
20
10.194427
0
VERTEX
8
1
10
15.425667
20
10.282669
42
0.022964
0
VERTEX
8
1
10
15.581688
20
10.348099
0
VERTEX
8
1
10
15.626854
20
10.263885
42
0.040364
0
VERTEX
8
1
10
15.843727
20
10.388412
0
VERTEX
8
1
10
15.787132
20
10.464615
0
VERTEX
8
1
10
15.787003
20
10.465317
42
0.020938
0
VERTEX
8
1
10
15.921440
20
10.564560
0
VERTEX
8
1
10
15.986351
20
10.493073
42
0.034814
0
VERTEX
8
1
10
16.166046
20
10.660599
0
VERTEX
8
1
10
16.102684
20
10.714691
42
0.021763
0
VERTEX
8
1
10
16.217896
20
10.836273
0
VERTEX
8
1
10
16.280983
20
10.791397
42
0.028810
0
VERTEX
8
1
10
16.420235
20
10.989075
0
VERTEX
8
1
10
16.360153
20
11.022659
0
VERTEX
8
1
10
16.356476
20
11.025040
42
0.023552
0
VERTEX
8
1
10
16.436798
20
11.169708
0
VERTEX
8
1
10
16.504189
20
11.138748
0
VERTEX
8
1
10
16.504738
20
11.139099
42
0.033118
0
VERTEX
8
1
10
16.601944
20
11.356979
0
VERTEX
8
1
10
16.519409
20
11.385239
42
0.015098
0
VERTEX
8
1
10
16.559486
20
11.543488
0
VERTEX
8
1
10
16.655556
20
11.518356
42
0.027311
0
VERTEX
8
1
10
16.710136
20
11.749268
0
VERTEX
8
1
10
16.612854
20
11.765091
0
VERTEX
8
1
10
16.612053
20
11.766235
42
0.017543
0
VERTEX
8
1
10
16.634285
20
11.925812
0
VERTEX
8
1
10
16.733498
20
11.916687
42
0.017845
0
VERTEX
8
1
10
16.744316
20
12.072342
0
VERTEX
8
1
10
16.751602
20
12.075180
0
VERTEX
8
1
10
17.116943
20
12.083466
0
VERTEX
8
1
10
17.614258
20
12.190964
0
SEQEND
0
POLYLINE
8
1
66
1
70
1
0
VERTEX
8
1
10
2.978241
20
15.305695
0
VERTEX
8
1
10
3.848610
20
15.301056
0
VERTEX
8
1
10
3.848610
20
15.217728
0
VERTEX
8
1
10
3.765282
20
15.245499
0
VERTEX
8
1
10
3.746765
20
15.171432
0
VERTEX
8
1
10
3.603241
20
15.180695
0
VERTEX
8
1
10
3.117126
20
15.180695
0
VERTEX
8
1
10
3.117126
20
14.611252
0
VERTEX
8
1
10
2.964348
20
14.750137
0
SEQEND
0
POLYLINE
8
1
66
1
0
VERTEX
8
1
10
2.122147
20
12.977997
0
VERTEX
8
1
10
2.121826
20
12.978149
0
VERTEX
8
1
10
2.122147
20
12.977997
0
SEQEND
0
POLYLINE
8
1
66
1
70
1
0
VERTEX
8
1
10
1.811584
20
15.217728
0
VERTEX
8
1
10
1.797684
20
13.604309
0
VERTEX
8
1
10
1.644905
20
13.590424
0
VERTEX
8
1
10
1.663429
20
15.328827
0
VERTEX
8
1
10
2.793060
20
15.310318
0
VERTEX
8
1
10
2.783806
20
15.199203
0
SEQEND
0
POLYLINE
8
1
66
1
70
1
0
VERTEX
8
1
10
2.610741
20
11.963516
42
-0.098398
0
VERTEX
8
1
10
2.521271
20
12.218277
42
-0.174190
0
VERTEX
8
1
10
2.627457
20
12.955734
0
VERTEX
8
1
10
2.655190
20
13.001419
0
VERTEX
8
1
10
2.684975
20
13.043869
0
VERTEX
8
1
10
2.716629
20
13.082901
42
-0.312516
0
VERTEX
8
1
10
3.072517
20
13.177551
42
-0.076429
0
VERTEX
8
1
10
3.202927
20
13.114182
42
-0.170875
0
VERTEX
8
1
10
3.123856
20
13.084534
0
VERTEX
8
1
10
3.112160
20
13.088989
42
0.295129
0
VERTEX
8
1
10
2.856476
20
13.085068
42
0.183092
0
VERTEX
8
1
10
2.650513
20
12.802765
0
VERTEX
8
1
10
2.638412
20
12.758591
42
0.088602
0
VERTEX
8
1
10
2.626663
20
12.256775
42
0.148483
0
VERTEX
8
1
10
2.799500
20
11.904877
42
0.201000
0
VERTEX
8
1
10
3.014130
20
11.812988
42
0.289089
0
VERTEX
8
1
10
3.102203
20
11.722321
0
VERTEX
8
1
10
3.118935
20
11.717255
42
-0.283932
0
VERTEX
8
1
10
2.769501
20
11.767807
42
-0.095772
0
SEQEND
0
POLYLINE
8
1
66
1
70
1
0
VERTEX
8
1
10
3.345078
20
12.641251
42
-0.072397
0
VERTEX
8
1
10
3.361717
20
12.391510
0
VERTEX
8
1
10
3.344299
20
12.371613
42
0.280344
0
VERTEX
8
1
10
3.224159
20
12.201187
42
0.168477
0
VERTEX
8
1
10
3.260635
20
12.100021
42
-0.141080
0
VERTEX
8
1
10
3.130356
20
11.945862
0
VERTEX
8
1
10
3.118660
20
11.940552
0
VERTEX
8
1
10
3.104843
20
11.947052
42
0.101083
0
VERTEX
8
1
10
2.970482
20
12.036240
42
0.300078
0
VERTEX
8
1
10
2.905952
20
12.025925
0
VERTEX
8
1
10
2.896461
20
12.001724
0
VERTEX
8
1
10
2.895576
20
11.964325
0
VERTEX
8
1
10
2.871506
20
11.981354
42
-0.145950
0
VERTEX
8
1
10
2.749565
20
12.182373
0
VERTEX
8
1
10
2.746315
20
12.203812
0
VERTEX
8
1
10
2.748978
20
12.216797
0
VERTEX
8
1
10
2.762794
20
12.209503
42
0.453360
0
VERTEX
8
1
10
2.857483
20
12.234039
0
VERTEX
8
1
10
2.869194
20
12.256363
0
VERTEX
8
1
10
2.880066
20
12.285385
0
VERTEX
8
1
10
2.896828
20
12.292740
0
VERTEX
8
1
10
2.957253
20
12.279236
42
0.416053
0
VERTEX
8
1
10
2.978516
20
12.161148
0
VERTEX
8
1
10
3.001770
20
12.156342
42
0.501537
0
VERTEX
8
1
10
3.069786
20
12.291946
0
VERTEX
8
1
10
3.061043
20
12.310608
42
-0.066223
0
VERTEX
8
1
10
3.088913
20
12.441940
42
0.637365
0
VERTEX
8
1
10
3.126717
20
12.583633
42
0.423216
0
VERTEX
8
1
10
3.066422
20
12.576675
0
VERTEX
8
1
10
3.013565
20
12.642227
42
0.156728
0
VERTEX
8
1
10
3.024483
20
12.745148
0
VERTEX
8
1
10
3.015778
20
12.759842
42
0.851128
0
VERTEX
8
1
10
2.901154
20
12.668350
0
VERTEX
8
1
10
2.905357
20
12.657364
42
-0.116756
0
VERTEX
8
1
10
2.848335
20
12.574768
42
0.188036
0
VERTEX
8
1
10
2.805138
20
12.639160
42
0.381500
0
VERTEX
8
1
10
2.765038
20
12.625580
42
0.228323
0
VERTEX
8
1
10
2.742783
20
12.528931
42
0.188218
0
VERTEX
8
1
10
2.807236
20
12.486191
42
0.100147
0
VERTEX
8
1
10
2.814545
20
12.396057
0
VERTEX
8
1
10
2.804375
20
12.391327
42
-0.142512
0
VERTEX
8
1
10
2.699554
20
12.403412
42
-0.189848
0
VERTEX
8
1
10
2.781570
20
12.814713
0
VERTEX
8
1
10
2.808746
20
12.842667
42
0.249796
0
VERTEX
8
1
10
2.910423
20
12.865250
42
0.108552
0
VERTEX
8
1
10
3.006630
20
12.984940
0
VERTEX
8
1
10
3.020477
20
13.005615
0
VERTEX
8
1
10
3.038864
20
13.013092
0
VERTEX
8
1
10
3.062073
20
13.011932
42
-0.093968
0
VERTEX
8
1
10
3.221497
20
12.920929
42
0.216754
0
VERTEX
8
1
10
3.186707
20
12.734573
42
0.463514
0
VERTEX
8
1
10
3.328224
20
12.687042
0
VERTEX
8
1
10
3.333450
20
12.680145
0
VERTEX
8
1
10
3.339188
20
12.664413
0
SEQEND
0
POLYLINE
8
1
66
1
70
1
0
VERTEX
8
1
10
3.445709
20
11.123291
0
VERTEX
8
1
10
3.338013
20
11.302826
0
VERTEX
8
1
10
3.417099
20
11.377899
0
VERTEX
8
1
10
3.509865
20
11.220047
0
SEQEND
0
POLYLINE
8
1
66
1
70
1
0
VERTEX
8
1
10
3.694824
20
11.422348
0
VERTEX
8
1
10
3.552116
20
11.584473
0
VERTEX
8
1
10
3.599625
20
11.682632
0
VERTEX
8
1
10
3.760124
20
11.532639
0
SEQEND
0
POLYLINE
8
1
66
1
70
1
0
VERTEX
8
1
10
3.822281
20
11.868134
0
VERTEX
8
1
10
3.685822
20
11.906967
0
VERTEX
8
1
10
3.725716
20
12.046722
0
VERTEX
8
1
10
3.848747
20
11.981705
0
SEQEND
0
POLYLINE
8
1
66
1
70
1
0
VERTEX
8
1
10
3.961624
20
12.560196
42
-0.139752
0
VERTEX
8
1
10
3.940147
20
12.314484
0
VERTEX
8
1
10
3.932053
20
12.300980
42
-0.660558
0
VERTEX
8
1
10
3.876244
20
12.300980
0
VERTEX
8
1
10
3.868149
20
12.314499
42
-0.175070
0
VERTEX
8
1
10
3.864395
20
12.622269
42
-0.320091
0
VERTEX
8
1
10
3.909103
20
12.661636
0
VERTEX
8
1
10
3.918678
20
12.657394
42
-0.174174
0
SEQEND
0
POLYLINE
8
1
66
1
70
1
0
VERTEX
8
1
10
4.314125
20
13.105850
0
VERTEX
8
1
10
4.284500
20
13.027542
42
0.160901
0
VERTEX
8
1
10
4.283157
20
12.972443
0
VERTEX
8
1
10
3.821251
20
13.013168
0
VERTEX
8
1
10
3.811356
20
13.014481
0
VERTEX
8
1
10
3.770393
20
13.096390
0
VERTEX
8
1
10
3.745125
20
13.208221
0
VERTEX
8
1
10
3.697670
20
13.378555
0
VERTEX
8
1
10
3.621590
20
13.596115
0
VERTEX
8
1
10
3.513611
20
13.835220
0
VERTEX
8
1
10
3.370445
20
14.070221
0
VERTEX
8
1
10
3.188789
20
14.275467
0
VERTEX
8
1
10
2.965347
20
14.425278
0
VERTEX
8
1
10
2.817703
20
14.472046
0
VERTEX
8
1
10
2.771469
20
14.490158
0
VERTEX
8
1
10
2.771385
20
14.505554
0
VERTEX
8
1
10
2.803566
20
14.518219
0
VERTEX
8
1
10
2.854164
20
14.528183
42
-0.008637
0
VERTEX
8
1
10
3.072281
20
14.551987
42
-0.025763
0
VERTEX
8
1
10
3.519905
20
14.541809
0
VERTEX
8
1
10
3.575478
20
14.541733
0
VERTEX
8
1
10
3.587662
20
14.479721
0
VERTEX
8
1
10
3.588905
20
14.451950
0
VERTEX
8
1
10
3.679222
20
14.456451
0
VERTEX
8
1
10
3.679726
20
14.455872
42
0.015027
0
VERTEX
8
1
10
3.686615
20
14.340866
0
VERTEX
8
1
10
3.596146
20
14.330719
42
0.018008
0
VERTEX
8
1
10
3.617317
20
14.161942
0
VERTEX
8
1
10
3.706795
20
14.179916
42
0.013669
0
VERTEX
8
1
10
3.728966
20
14.066803
0
VERTEX
8
1
10
3.640656
20
14.042740
42
0.022739
0
VERTEX
8
1
10
3.684860
20
13.878998
0
VERTEX
8
1
10
3.769524
20
13.910492
0
VERTEX
8
1
10
3.770630
20
13.910568
0
VERTEX
8
1
10
3.789879
20
13.853043
0
VERTEX
8
1
10
3.808647
20
13.802872
0
VERTEX
8
1
10
3.724678
20
13.764648
42
0.075755
0
VERTEX
8
1
10
3.812706
20
13.597931
0
VERTEX
8
1
10
3.867050
20
13.625107
0
VERTEX
8
1
10
3.936569
20
13.527924
0
VERTEX
8
1
10
3.894966
20
13.444412
0
VERTEX
8
1
10
3.935715
20
13.335739
0
VERTEX
8
1
10
3.936867
20
13.333847
0
VERTEX
8
1
10
3.991470
20
13.402100
0
VERTEX
8
1
10
3.992928
20
13.401703
0
VERTEX
8
1
10
4.060661
20
13.299484
42
0.029752
0
VERTEX
8
1
10
4.128387
20
13.231262
0
VERTEX
8
1
10
4.079956
20
13.165466
42
0.040865
0
VERTEX
8
1
10
4.194450
20
13.077240
0
VERTEX
8
1
10
4.232933
20
13.150650
42
0.034259
0
SEQEND
0
POLYLINE
8
1
66
1
70
1
0
VERTEX
8
1
10
4.234169
20
13.984619
42
-0.096448
0
VERTEX
8
1
10
4.136368
20
14.238892
42
-0.168269
0
VERTEX
8
1
10
4.211205
20
14.991409
0
VERTEX
8
1
10
4.236595
20
15.039139
42
-0.131238
0
VERTEX
8
1
10
4.397507
20
15.216583
42
-0.242206
0
VERTEX
8
1
10
4.720650
20
15.214111
42
-0.039745
0
VERTEX
8
1
10
4.778854
20
15.181885
42
-0.313977
0
VERTEX
8
1
10
4.754204
20
15.120285
42
-0.291458
0
VERTEX
8
1
10
4.723099
20
15.127350
42
0.190087
0
VERTEX
8
1
10
4.532578
20
15.158768
42
0.122475
0
VERTEX
8
1
10
4.424500
20
15.086212
42
0.163292
0
VERTEX
8
1
10
4.236740
20
14.725723
42
0.084646
0
VERTEX
8
1
10
4.232773
20
14.316406
42
0.190341
0
VERTEX
8
1
10
4.461754
20
13.943832
42
0.155837
0
VERTEX
8
1
10
4.684868
20
13.872589
42
0.147087
0
VERTEX
8
1
10
4.748711
20
13.753830
42
-0.293916
0
VERTEX
8
1
10
4.397591
20
13.792450
42
-0.094506
0
SEQEND
0
POLYLINE
8
1
66
1
70
1
0
VERTEX
8
1
10
4.922287
20
14.708221
42
0.208739
0
VERTEX
8
1
10
4.800827
20
14.521042
42
0.140456
0
VERTEX
8
1
10
4.828514
20
14.277695
42
0.066032
0
VERTEX
8
1
10
4.894806
20
14.134521
0
VERTEX
8
1
10
4.812386
20
14.033524
0
VERTEX
8
1
10
4.811470
20
14.032761
0
VERTEX
8
1
10
4.737511
20
14.162155
42
0.117187
0
VERTEX
8
1
10
4.714111
20
14.330490
0
VERTEX
8
1
10
4.701324
20
14.351440
42
0.660218
0
VERTEX
8
1
10
4.535782
20
14.309906
0
VERTEX
8
1
10
4.534157
20
14.291443
42
0.133380
0
VERTEX
8
1
10
4.581558
20
14.143295
42
0.191005
0
VERTEX
8
1
10
4.651932
20
14.106949
42
-0.180290
0
VERTEX
8
1
10
4.662422
20
13.977325
42
-0.156304
0
VERTEX
8
1
10
4.479202
20
14.135284
42
-0.153672
0
VERTEX
8
1
10
4.369858
20
14.526978
42
-0.142573
0
VERTEX
8
1
10
4.458641
20
14.858841
42
-0.136329
0
VERTEX
8
1
10
4.594635
20
14.982254
42
-0.363717
0
VERTEX
8
1
10
4.781593
20
15.008789
42
-0.447966
0
VERTEX
8
1
10
4.788864
20
14.982132
0
VERTEX
8
1
10
4.777237
20
14.968185
42
0.050671
0
VERTEX
8
1
10
4.660133
20
14.839737
42
0.232185
0
VERTEX
8
1
10
4.649651
20
14.772507
42
0.303757
0
VERTEX
8
1
10
4.764931
20
14.719574
42
0.118136
0
VERTEX
8
1
10
4.844772
20
14.778717
0
VERTEX
8
1
10
4.857872
20
14.780426
42
-0.239400
0
SEQEND
0
POLYLINE
8
1
66
1
70
1
0
VERTEX
8
1
10
5.090691
20
15.783661
0
VERTEX
8
1
10
5.157990
20
15.722946
0
VERTEX
8
1
10
5.070457
20
15.597260
0
VERTEX
8
1
10
5.008980
20
15.657715
0
SEQEND
0
POLYLINE
8
1
66
1
70
1
0
VERTEX
8
1
10
5.131691
20
13.101822
0
VERTEX
8
1
10
5.011620
20
13.287384
0
VERTEX
8
1
10
5.091354
20
13.370209
0
VERTEX
8
1
10
5.194923
20
13.207001
0
SEQEND
0
POLYLINE
8
1
66
1
70
1
0
VERTEX
8
1
10
5.494446
20
15.030380
0
VERTEX
8
1
10
5.512177
20
14.907074
0
VERTEX
8
1
10
5.375092
20
14.848511
0
VERTEX
8
1
10
5.352165
20
14.986465
0
SEQEND
0
POLYLINE
8
1
66
1
70
1
0
VERTEX
8
1
10
5.315277
20
15.456406
0
VERTEX
8
1
10
5.380951
20
15.359756
0
VERTEX
8
1
10
5.253265
20
15.250336
0
VERTEX
8
1
10
5.205734
20
15.360565
0
SEQEND
0
POLYLINE
8
1
66
1
70
1
0
VERTEX
8
1
10
5.380348
20
13.429047
0
VERTEX
8
1
10
5.224319
20
13.594681
0
VERTEX
8
1
10
5.270081
20
13.700653
0
VERTEX
8
1
10
5.444237
20
13.548599
0
SEQEND
0
POLYLINE
8
1
66
1
70
1
0
VERTEX
8
1
10
5.495636
20
13.906464
0
VERTEX
8
1
10
5.351204
20
13.941864
0
VERTEX
8
1
10
5.387230
20
14.091522
0
VERTEX
8
1
10
5.518715
20
14.027863
0
SEQEND
0
POLYLINE
8
1
66
1
70
1
0
VERTEX
8
1
10
5.412064
20
14.378555
0
VERTEX
8
1
10
5.402443
20
14.551910
0
VERTEX
8
1
10
5.559860
20
14.544708
0
VERTEX
8
1
10
5.570427
20
14.392929
0
SEQEND
0
POLYLINE
8
1
66
1
70
1
0
VERTEX
8
1
10
15.828758
20
14.430084
42
-0.127038
0
VERTEX
8
1
10
15.872276
20
14.738571
42
-0.190431
0
VERTEX
8
1
10
15.935883
20
14.803635
42
-0.321745
0
VERTEX
8
1
10
16.005432
20
14.774643
0
VERTEX
8
1
10
16.017471
20
14.758133
0
VERTEX
8
1
10
16.028641
20
14.738571
0
VERTEX
8
1
10
16.038849
20
14.716202
42
-0.169560
0
VERTEX
8
1
10
16.038849
20
14.284088
42
-0.217806
0
VERTEX
8
1
10
15.965042
20
14.196640
42
-0.321745
0
VERTEX
8
1
10
15.895493
20
14.225632
42
-0.138340
0
SEQEND
0
POLYLINE
8
1
66
1
70
1
0
VERTEX
8
1
10
15.547684
20
14.764023
42
-0.152639
0
VERTEX
8
1
10
15.801743
20
14.837265
0
VERTEX
8
1
10
15.825462
20
14.833466
42
0.105467
0
VERTEX
8
1
10
15.763504
20
14.400208
42
0.162508
0
VERTEX
8
1
10
15.881012
20
14.125137
42
-0.150970
0
VERTEX
8
1
10
15.685669
20
14.180298
42
-0.045374
0
VERTEX
8
1
10
15.561569
20
14.264023
0
SEQEND
0
POLYLINE
8
1
66
1
70
1
0
VERTEX
8
1
10
15.781120
20
14.547699
0
VERTEX
8
1
10
15.790550
20
14.547134
0
VERTEX
8
1
10
15.789856
20
14.536392
0
VERTEX
8
1
10
15.789139
20
14.533463
0
VERTEX
8
1
10
15.778503
20
14.547287
0
SEQEND
0
POLYLINE
8
1
66
1
70
1
0
VERTEX
8
1
10
14.752106
20
12.978653
42
0.017067
0
VERTEX
8
1
10
14.881012
20
13.125137
0
VERTEX
8
1
10
15.283791
20
13.124985
0
VERTEX
8
1
10
15.283791
20
13.069733
42
0.030923
0
VERTEX
8
1
10
15.012169
20
13.021820
42
0.021036
0
VERTEX
8
1
10
14.838943
20
12.930710
0
VERTEX
8
1
10
14.700859
20
12.930695
42
0.029604
0
SEQEND
0
POLYLINE
8
1
66
1
70
1
0
VERTEX
8
1
10
13.869064
20
15.628525
42
-0.030319
0
VERTEX
8
1
10
14.454369
20
15.589081
0
VERTEX
8
1
10
14.411667
20
15.584961
42
0.141393
0
VERTEX
8
1
10
14.117485
20
15.478668
42
0.120144
0
VERTEX
8
1
10
14.034828
20
15.372894
42
0.383638
0
VERTEX
8
1
10
14.068329
20
15.332611
0
VERTEX
8
1
10
14.088623
20
15.325500
42
0.060341
0
VERTEX
8
1
10
14.403542
20
15.297836
0
VERTEX
8
1
10
14.452469
20
15.297394
0
VERTEX
8
1
10
14.501396
20
15.297409
0
VERTEX
8
1
10
14.526306
20
15.295929
0
VERTEX
8
1
10
14.548126
20
15.292511
42
-0.421188
0
VERTEX
8
1
10
14.641876
20
15.172501
0
VERTEX
8
1
10
13.883385
20
15.152985
0
VERTEX
8
1
10
13.880997
20
15.151398
0
VERTEX
8
1
10
13.871063
20
14.047501
0
VERTEX
8
1
10
13.746246
20
14.047501
0
VERTEX
8
1
10
13.745857
20
15.172470
0
VERTEX
8
1
10
13.162979
20
15.172455
42
-0.248932
0
VERTEX
8
1
10
13.362007
20
15.505493
42
-0.047381
0
VERTEX
8
1
10
13.551727
20
15.601929
42
-0.056294
0
SEQEND
0
POLYLINE
8
1
66
1
70
1
0
VERTEX
8
1
10
14.030029
20
13.230087
42
0.113304
0
VERTEX
8
1
10
14.033791
20
13.125137
42
-0.032057
0
VERTEX
8
1
10
13.497849
20
13.165451
0
VERTEX
8
1
10
13.485397
20
13.184952
42
-0.292195
0
VERTEX
8
1
10
13.536629
20
13.335373
42
-0.071743
0
VERTEX
8
1
10
13.590454
20
13.375168
42
-0.030114
0
VERTEX
8
1
10
14.125153
20
13.365051
0
VERTEX
8
1
10
14.150093
20
13.358414
42
0.279671
0
SEQEND
0
POLYLINE
8
1
66
1
70
1
0
VERTEX
8
1
10
11.463417
20
15.686325
42
-0.002426
0
VERTEX
8
1
10
13.408012
20
15.691727
42
0.205967
0
VERTEX
8
1
10
13.020729
20
15.350266
42
0.079297
0
VERTEX
8
1
10
12.977417
20
15.180649
0
VERTEX
8
1
10
12.964554
20
15.151627
42
-0.000826
0
VERTEX
8
1
10
9.933678
20
15.172806
42
-0.347409
0
VERTEX
8
1
10
10.159294
20
15.597626
42
-0.105142
0
VERTEX
8
1
10
10.500969
20
15.671844
42
-0.005210
0
SEQEND
0
POLYLINE
8
1
66
1
70
1
0
VERTEX
8
1
10
12.769234
20
14.076691
42
0.039548
0
VERTEX
8
1
10
12.839348
20
14.027924
42
-0.077705
0
VERTEX
8
1
10
12.421852
20
14.272079
42
-0.135432
0
VERTEX
8
1
10
12.288216
20
14.460770
0
VERTEX
8
1
10
12.280823
20
14.502365
0
VERTEX
8
1
10
12.282036
20
14.544922
42
-0.204880
0
VERTEX
8
1
10
12.514175
20
14.882309
42
-0.138899
0
VERTEX
8
1
10
12.813423
20
14.989258
0
VERTEX
8
1
10
12.840569
20
14.987961
0
VERTEX
8
1
10
12.852547
20
14.985580
42
0.164280
0
VERTEX
8
1
10
12.655708
20
14.582962
42
0.158961
0
VERTEX
8
1
10
12.738754
20
14.217316
0
VERTEX
8
1
10
12.765419
20
14.165741
0
VERTEX
8
1
10
12.750282
20
14.160751
42
0.573559
0
VERTEX
8
1
10
12.734901
20
14.113861
42
0.074661
0
SEQEND
0
POLYLINE
8
1
66
1
70
1
0
VERTEX
8
1
10
12.742142
20
14.527298
42
-0.162845
0
VERTEX
8
1
10
12.832283
20
14.835617
0
VERTEX
8
1
10
12.849190
20
14.854614
42
-0.444538
0
VERTEX
8
1
10
13.046875
20
14.863037
0
VERTEX
8
1
10
13.064293
20
14.845474
42
-0.167950
0
VERTEX
8
1
10
13.162506
20
14.546326
42
-0.158421
0
VERTEX
8
1
10
13.080643
20
14.229477
42
-0.249368
0
VERTEX
8
1
10
12.947098
20
14.151794
42
-0.217997
0
VERTEX
8
1
10
12.832291
20
14.218964
42
-0.162830
0
SEQEND
0
POLYLINE
8
1
66
1
70
1
0
VERTEX
8
1
10
11.075615
20
16.043762
0
VERTEX
8
1
10
11.052193
20
16.128906
42
-0.173811
0
VERTEX
8
1
10
11.391609
20
16.137543
42
-0.240780
0
VERTEX
8
1
10
11.516792
20
15.991852
0
VERTEX
8
1
10
11.513313
20
15.988083
0
VERTEX
8
1
10
11.223450
20
16.037186
0
VERTEX
8
1
10
11.076454
20
16.042938
0
SEQEND
0
POLYLINE
8
1
66
1
70
1
0
VERTEX
8
1
10
11.661667
20
16.778687
42
0.001590
0
VERTEX
8
1
10
11.941177
20
16.453537
42
-0.012773
0
VERTEX
8
1
10
12.105545
20
15.963654
0
VERTEX
8
1
10
12.109695
20
15.954544
42
-0.543116
0
VERTEX
8
1
10
12.079155
20
15.895538
0
VERTEX
8
1
10
12.070877
20
15.893646
0
VERTEX
8
1
10
11.589478
20
15.975189
0
VERTEX
8
1
10
11.584579
20
15.978241
42
0.322226
0
VERTEX
8
1
10
11.353554
20
16.214905
42
0.135356
0
VERTEX
8
1
10
11.036888
20
16.190201
0
VERTEX
8
1
10
11.033813
20
16.195679
0
VERTEX
8
1
10
10.854668
20
16.846909
0
VERTEX
8
1
10
10.867805
20
16.852264
42
-0.061365
0
VERTEX
8
1
10
11.553406
20
16.820038
0
VERTEX
8
1
10
11.594498
20
16.810776
0
VERTEX
8
1
10
11.632912
20
16.800507
0
SEQEND
0
POLYLINE
8
1
66
1
70
1
0
VERTEX
8
1
10
10.704369
20
16.838531
42
-0.006060
0
VERTEX
8
1
10
10.789925
20
16.846619
0
VERTEX
8
1
10
10.976357
20
16.168930
0
VERTEX
8
1
10
10.970856
20
16.161819
42
0.074021
0
VERTEX
8
1
10
10.817322
20
16.053101
0
VERTEX
8
1
10
10.752052
20
16.055664
0
VERTEX
8
1
10
10.751350
20
16.056091
42
-0.015631
0
VERTEX
8
1
10
10.699669
20
16.771210
0
VERTEX
8
1
10
10.699821
20
16.821487
0
SEQEND
0
POLYLINE
8
1
66
1
70
1
0
VERTEX
8
1
10
10.762047
20
16.947968
0
VERTEX
8
1
10
10.725739
20
17.089600
42
-1.000185
0
VERTEX
8
1
10
10.786285
20
17.105118
0
VERTEX
8
1
10
10.822594
20
16.963486
42
-0.999748
0
SEQEND
0
POLYLINE
8
1
66
1
70
1
0
VERTEX
8
1
10
10.916710
20
16.054810
42
-0.040278
0
VERTEX
8
1
10
10.994438
20
16.103195
0
VERTEX
8
1
10
11.009857
20
16.047150
0
VERTEX
8
1
10
11.009567
20
16.045547
0
VERTEX
8
1
10
10.910370
20
16.049454
0
SEQEND
0
POLYLINE
8
1
66
1
70
1
0
VERTEX
8
1
10
11.354523
20
17.150238
42
-1.113090
0
VERTEX
8
1
10
11.412163
20
17.176804
42
0.017268
0
VERTEX
8
1
10
11.629395
20
16.912613
42
-0.894750
0
VERTEX
8
1
10
11.580757
20
16.873978
42
-0.014987
0
SEQEND
0
POLYLINE
8
1
66
1
70
1
0
VERTEX
8
1
10
8.543388
20
16.813431
42
-0.066050
0
VERTEX
8
1
10
8.734169
20
16.211395
42
-0.071746
0
VERTEX
8
1
10
8.737503
20
16.006424
0
VERTEX
8
1
10
7.609276
20
16.023270
0
VERTEX
8
1
10
7.607803
20
16.023514
0
VERTEX
8
1
10
7.604965
20
16.037811
42
-0.100604
0
VERTEX
8
1
10
7.631104
20
16.597809
42
-0.140843
0
VERTEX
8
1
10
7.733253
20
16.776932
42
-0.185072
0
VERTEX
8
1
10
7.850754
20
16.819748
0
VERTEX
8
1
10
8.541168
20
16.814102
0
SEQEND
0
POLYLINE
8
1
66
1
70
1
0
VERTEX
8
1
10
9.339066
20
15.340393
42
0.158575
0
VERTEX
8
1
10
9.318512
20
15.062637
42
-0.095237
0
VERTEX
8
1
10
9.173180
20
15.189026
0
VERTEX
8
1
10
9.163017
20
15.207153
42
-0.438747
0
VERTEX
8
1
10
9.191795
20
15.293259
42
-0.106472
0
SEQEND
0
POLYLINE
8
1
66
1
70
1
0
VERTEX
8
1
10
9.464348
20
15.055695
42
-0.295964
0
VERTEX
8
1
10
9.397095
20
15.112564
42
-0.253077
0
VERTEX
8
1
10
9.415131
20
15.306671
42
-0.544261
0
VERTEX
8
1
10
9.513565
20
15.306686
42
-0.304384
0
VERTEX
8
1
10
9.513565
20
15.082504
42
-0.228331
0
SEQEND
0
POLYLINE
8
1
66
1
70
1
0
VERTEX
8
1
10
9.674339
20
15.212158
42
-0.175782
0
VERTEX
8
1
10
9.652779
20
15.239563
42
0.141485
0
VERTEX
8
1
10
9.546425
20
15.446014
42
0.285537
0
VERTEX
8
1
10
9.411293
20
15.476166
42
0.104815
0
VERTEX
8
1
10
9.124069
20
15.319580
42
0.056057
0
VERTEX
8
1
10
9.109367
20
15.744247
42
0.066418
0
VERTEX
8
1
10
8.871445
20
16.644623
42
0.089123
0
VERTEX
8
1
10
8.633026
20
17.012573
42
0.187352
0
VERTEX
8
1
10
8.228325
20
17.201096
42
0.069127
0
VERTEX
8
1
10
7.211861
20
17.158463
0
VERTEX
8
1
10
7.168213
20
17.148422
0
VERTEX
8
1
10
7.129700
20
17.137894
42
0.121304
0
VERTEX
8
1
10
6.982666
20
17.050842
42
0.211027
0
VERTEX
8
1
10
6.798637
20
16.730164
42
0.036062
0
VERTEX
8
1
10
6.788094
20
16.568207
0
VERTEX
8
1
10
6.683968
20
16.547363
42
-0.134410
0
VERTEX
8
1
10
6.774727
20
17.096283
42
-0.218515
0
VERTEX
8
1
10
7.180107
20
17.428406
42
-0.046553
0
VERTEX
8
1
10
7.663132
20
17.497772
42
-0.021924
0
VERTEX
8
1
10
9.034439
20
17.511581
42
0.001707
0
VERTEX
8
1
10
10.192154
20
17.479507
42
-0.054725
0
VERTEX
8
1
10
10.999153
20
17.328918
42
-0.074715
0
VERTEX
8
1
10
11.194130
20
17.235413
42
-0.223958
0
VERTEX
8
1
10
11.247276
20
17.159546
42
-0.080273
0
VERTEX
8
1
10
11.246185
20
17.151505
42
0.037492
0
VERTEX
8
1
10
10.375778
20
17.235123
42
0.016492
0
VERTEX
8
1
10
9.430420
20
17.250107
0
VERTEX
8
1
10
9.373817
20
17.247696
42
0.087424
0
VERTEX
8
1
10
9.190392
20
17.211563
42
0.147554
0
VERTEX
8
1
10
9.027290
20
17.117645
42
0.177290
0
VERTEX
8
1
10
8.984932
20
16.971909
0
VERTEX
8
1
10
8.987061
20
16.937881
0
VERTEX
8
1
10
8.992386
20
16.900620
42
0.030391
0
VERTEX
8
1
10
9.140053
20
16.380478
42
0.014617
0
VERTEX
8
1
10
9.273865
20
15.993469
42
0.204265
0
VERTEX
8
1
10
9.495514
20
15.849747
42
0.076580
0
VERTEX
8
1
10
9.720589
20
15.842224
42
-0.011403
0
VERTEX
8
1
10
10.829361
20
15.853058
0
VERTEX
8
1
10
11.043053
20
15.851990
42
-0.062105
0
VERTEX
8
1
10
10.842735
20
15.775162
0
VERTEX
8
1
10
10.825150
20
15.772507
42
-0.026354
0
VERTEX
8
1
10
10.378349
20
15.755310
42
0.154053
0
VERTEX
8
1
10
9.975723
20
15.606232
42
0.166182
0
VERTEX
8
1
10
9.803917
20
15.319824
0
VERTEX
8
1
10
9.791687
20
15.251114
0
VERTEX
8
1
10
9.779419
20
15.211395
42
-0.215546
0
SEQEND
0
POLYLINE
8
1
66
1
70
1
0
VERTEX
8
1
10
9.260803
20
16.590271
0
VERTEX
8
1
10
9.307022
20
16.548676
0
VERTEX
8
1
10
9.537521
20
16.804810
0
VERTEX
8
1
10
9.540047
20
16.806076
0
VERTEX
8
1
10
10.163063
20
16.801056
42
-0.199258
0
VERTEX
8
1
10
10.294388
20
16.649689
42
-0.097055
0
VERTEX
8
1
10
10.320824
20
16.485596
42
-0.028010
0
VERTEX
8
1
10
10.293121
20
16.042282
0
VERTEX
8
1
10
10.289001
20
16.041595
0
VERTEX
8
1
10
9.468964
20
15.995499
42
-0.171464
0
VERTEX
8
1
10
9.331535
20
16.189911
42
-0.019755
0
VERTEX
8
1
10
9.145004
20
16.808960
0
VERTEX
8
1
10
9.147621
20
16.809235
0
VERTEX
8
1
10
9.455086
20
16.806625
0
VERTEX
8
1
10
9.260994
20
16.590958
0
SEQEND
0
POLYLINE
8
1
66
1
70
1
0
VERTEX
8
1
10
9.604546
20
16.879288
42
-0.992746
0
VERTEX
8
1
10
9.558434
20
16.921463
0
VERTEX
8
1
10
9.761894
20
17.147400
42
-0.955743
0
VERTEX
8
1
10
9.807648
20
17.104950
0
SEQEND
0
POLYLINE
8
1
66
1
70
1
0
VERTEX
8
1
10
9.976151
20
10.954010
42
-0.024856
0
VERTEX
8
1
10
9.894905
20
11.069580
42
-0.157703
0
VERTEX
8
1
10
9.767143
20
11.881790
42
-0.150324
0
VERTEX
8
1
10
10.039291
20
12.435898
42
-0.225237
0
VERTEX
8
1
10
10.503227
20
12.576416
42
-0.081860
0
VERTEX
8
1
10
10.769913
20
12.500092
42
-0.331859
0
VERTEX
8
1
10
10.739090
20
12.421265
42
-0.181926
0
VERTEX
8
1
10
10.706131
20
12.419769
42
0.113363
0
VERTEX
8
1
10
10.437790
20
12.467468
42
0.140490
0
VERTEX
8
1
10
10.273209
20
12.400589
42
0.208372
0
VERTEX
8
1
10
9.942917
20
11.880112
42
0.097441
0
VERTEX
8
1
10
9.959900
20
11.381104
42
0.289406
0
VERTEX
8
1
10
10.568794
20
10.824524
42
0.055357
0
VERTEX
8
1
10
10.703346
20
10.818695
0
VERTEX
8
1
10
10.717545
20
10.809265
42
0.151188
0
VERTEX
8
1
10
10.825455
20
10.666809
0
VERTEX
8
1
10
10.770248
20
10.646698
42
-0.229418
0
VERTEX
8
1
10
10.236557
20
10.713165
42
-0.088706
0
SEQEND
0
POLYLINE
8
1
66
1
70
1
0
VERTEX
8
1
10
11.109070
20
11.864273
42
-0.088284
0
VERTEX
8
1
10
11.158791
20
11.541809
42
0.208881
0
VERTEX
8
1
10
10.969101
20
11.365784
42
0.275145
0
VERTEX
8
1
10
11.002647
20
11.186035
0
VERTEX
8
1
10
11.032791
20
11.150711
42
-0.147134
0
VERTEX
8
1
10
10.838455
20
10.927704
0
VERTEX
8
1
10
10.823166
20
10.920593
0
VERTEX
8
1
10
10.807518
20
10.919815
42
0.107316
0
VERTEX
8
1
10
10.542534
20
11.035599
42
0.223933
0
VERTEX
8
1
10
10.459023
20
11.014008
0
VERTEX
8
1
10
10.446526
20
10.988846
0
VERTEX
8
1
10
10.444260
20
10.952744
0
VERTEX
8
1
10
10.440155
20
10.923508
42
-0.107797
0
VERTEX
8
1
10
10.206619
20
11.141983
42
-0.086969
0
VERTEX
8
1
10
10.166214
20
11.238983
0
VERTEX
8
1
10
10.169380
20
11.252472
0
VERTEX
8
1
10
10.188934
20
11.245544
0
VERTEX
8
1
10
10.208595
20
11.239731
42
0.383570
0
VERTEX
8
1
10
10.349960
20
11.292999
0
VERTEX
8
1
10
10.363113
20
11.319458
0
VERTEX
8
1
10
10.374718
20
11.351944
0
VERTEX
8
1
10
10.391846
20
11.373932
0
VERTEX
8
1
10
10.505798
20
11.361267
42
0.430663
0
VERTEX
8
1
10
10.534698
20
11.217789
0
VERTEX
8
1
10
10.560905
20
11.201660
0
VERTEX
8
1
10
10.593315
20
11.198471
0
VERTEX
8
1
10
10.622932
20
11.207855
0
VERTEX
8
1
10
10.648087
20
11.219757
42
0.455608
0
VERTEX
8
1
10
10.691925
20
11.389206
0
VERTEX
8
1
10
10.678650
20
11.409302
0
VERTEX
8
1
10
10.672867
20
11.430588
42
-0.066056
0
VERTEX
8
1
10
10.700417
20
11.597229
42
0.253220
0
VERTEX
8
1
10
10.800072
20
11.685257
0
VERTEX
8
1
10
10.801819
20
11.706528
42
0.543856
0
VERTEX
8
1
10
10.665710
20
11.794800
0
VERTEX
8
1
10
10.654610
20
11.787262
0
VERTEX
8
1
10
10.644928
20
11.777954
0
VERTEX
8
1
10
10.547691
20
11.861237
42
0.177017
0
VERTEX
8
1
10
10.555565
20
11.994476
42
0.281572
0
VERTEX
8
1
10
10.478233
20
12.041809
42
0.312504
0
VERTEX
8
1
10
10.342690
20
11.972855
42
0.344897
0
VERTEX
8
1
10
10.367119
20
11.874405
0
VERTEX
8
1
10
10.365479
20
11.863937
42
-0.115048
0
VERTEX
8
1
10
10.283775
20
11.750198
42
0.222553
0
VERTEX
8
1
10
10.199600
20
11.833466
42
0.359345
0
VERTEX
8
1
10
10.125504
20
11.790237
42
0.234530
0
VERTEX
8
1
10
10.114006
20
11.677826
42
0.175755
0
VERTEX
8
1
10
10.228249
20
11.624893
42
0.134892
0
VERTEX
8
1
10
10.252686
20
11.503952
0
VERTEX
8
1
10
10.244209
20
11.497360
42
-0.137100
0
VERTEX
8
1
10
10.060951
20
11.501831
42
-0.204790
0
VERTEX
8
1
10
10.108650
20
12.020554
0
VERTEX
8
1
10
10.152573
20
12.086349
0
VERTEX
8
1
10
10.181190
20
12.109375
42
0.230713
0
VERTEX
8
1
10
10.366112
20
12.167847
42
0.100365
0
VERTEX
8
1
10
10.501129
20
12.348877
0
VERTEX
8
1
10
10.521454
20
12.363190
42
-0.156013
0
VERTEX
8
1
10
10.657852
20
12.350876
42
-0.053390
0
VERTEX
8
1
10
10.852394
20
12.262711
42
0.178568
0
VERTEX
8
1
10
10.803253
20
12.057907
42
0.348638
0
VERTEX
8
1
10
10.940376
20
11.934555
42
0.176260
0
VERTEX
8
1
10
11.060577
20
11.957733
0
VERTEX
8
1
10
11.068329
20
11.954559
42
-0.084444
0
SEQEND
0
POLYLINE
8
1
66
1
70
1
0
VERTEX
8
1
10
11.200462
20
13.051071
0
VERTEX
8
1
10
11.098602
20
13.125137
0
VERTEX
8
1
10
11.218964
20
13.291809
0
VERTEX
8
1
10
11.330078
20
13.217743
0
SEQEND
0
POLYLINE
8
1
66
1
70
1
0
VERTEX
8
1
10
11.478249
20
9.847366
0
VERTEX
8
1
10
11.274521
20
10.078827
0
VERTEX
8
1
10
11.394905
20
10.189941
0
VERTEX
8
1
10
11.570831
20
9.986252
0
SEQEND
0
POLYLINE
8
1
66
1
70
1
0
VERTEX
8
1
10
11.515274
20
12.615875
0
VERTEX
8
1
10
11.431938
20
12.754761
0
VERTEX
8
1
10
11.598602
20
12.884384
0
VERTEX
8
1
10
11.709717
20
12.764023
0
SEQEND
0
POLYLINE
8
1
66
1
70
1
0
VERTEX
8
1
10
11.913429
20
12.347366
0
VERTEX
8
1
10
11.950470
20
12.189941
0
VERTEX
8
1
10
11.737495
20
12.106613
0
VERTEX
8
1
10
11.691193
20
12.282547
0
SEQEND
0
POLYLINE
8
1
66
1
70
1
0
VERTEX
8
1
10
11.848602
20
10.282547
0
VERTEX
8
1
10
11.589363
20
10.486252
0
VERTEX
8
1
10
11.654160
20
10.625137
0
VERTEX
8
1
10
11.941208
20
10.439941
0
SEQEND
0
POLYLINE
8
1
66
1
70
1
0
VERTEX
8
1
10
11.996765
20
10.902924
0
VERTEX
8
1
10
11.765274
20
10.939941
0
VERTEX
8
1
10
11.811584
20
11.134384
0
VERTEX
8
1
10
12.024544
20
11.060318
0
SEQEND
0
POLYLINE
8
1
66
1
70
1
0
VERTEX
8
1
10
11.830101
20
11.504761
0
VERTEX
8
1
10
11.802322
20
11.726990
0
VERTEX
8
1
10
12.052322
20
11.726990
0
VERTEX
8
1
10
12.080101
20
11.532547
0
SEQEND
0
POLYLINE
8
1
66
1
70
1
0
VERTEX
8
1
10
12.774422
20
13.059921
0
VERTEX
8
1
10
12.631012
20
12.569580
0
VERTEX
8
1
10
12.617134
20
12.514069
0
VERTEX
8
1
10
12.450989
20
12.846313
0
VERTEX
8
1
10
12.450890
20
12.848709
42
-0.016307
0
VERTEX
8
1
10
12.546043
20
13.119400
0
VERTEX
8
1
10
12.560692
20
13.130325
42
0.043695
0
SEQEND
0
POLYLINE
8
1
66
1
70
1
0
VERTEX
8
1
10
13.270805
20
11.667511
42
-0.041805
0
VERTEX
8
1
10
13.254921
20
11.731430
0
VERTEX
8
1
10
13.266983
20
11.732834
42
0.000836
0
SEQEND
0
POLYLINE
8
1
66
1
70
1
0
VERTEX
8
1
10
13.308586
20
13.748260
42
0.084042
0
VERTEX
8
1
10
13.287773
20
13.672531
42
-0.036749
0
VERTEX
8
1
10
12.687485
20
13.627151
0
VERTEX
8
1
10
12.649902
20
13.628586
0
VERTEX
8
1
10
12.618599
20
13.631119
42
-0.027712
0
VERTEX
8
1
10
12.023262
20
13.775772
42
-0.022497
0
VERTEX
8
1
10
10.794617
20
14.172180
0
VERTEX
8
1
10
10.707664
20
14.207047
0
VERTEX
8
1
10
10.629616
20
14.240402
42
0.194639
0
VERTEX
8
1
10
9.664688
20
14.256607
0
VERTEX
8
1
10
9.662437
20
14.267548
0
VERTEX
8
1
10
9.679527
20
14.309967
0
VERTEX
8
1
10
9.724983
20
14.345535
0
VERTEX
8
1
10
9.795937
20
14.374786
0
VERTEX
8
1
10
9.889473
20
14.398224
42
-0.040768
0
VERTEX
8
1
10
10.431572
20
14.443481
42
-0.018820
0
VERTEX
8
1
10
11.580940
20
14.411789
0
VERTEX
8
1
10
12.033905
20
14.384415
0
VERTEX
8
1
10
12.095024
20
14.381439
0
VERTEX
8
1
10
12.130928
20
14.380707
42
-0.182286
0
VERTEX
8
1
10
12.260651
20
14.339630
42
-0.261009
0
VERTEX
8
1
10
12.288185
20
14.234756
0
VERTEX
8
1
10
12.734222
20
13.937668
42
0.348110
0
VERTEX
8
1
10
12.954330
20
13.964066
0
VERTEX
8
1
10
12.934608
20
14.023743
0
VERTEX
8
1
10
12.941589
20
14.028748
42
0.128163
0
VERTEX
8
1
10
13.160522
20
14.149445
42
-0.065823
0
VERTEX
8
1
10
13.672066
20
13.923615
42
-0.144973
0
VERTEX
8
1
10
13.811348
20
13.777420
42
-0.361833
0
VERTEX
8
1
10
13.766968
20
13.651733
0
VERTEX
8
1
10
13.561104
20
13.713455
42
0.108699
0
VERTEX
8
1
10
13.417610
20
13.802933
42
0.391506
0
SEQEND
0
POLYLINE
8
1
66
1
70
1
0
VERTEX
8
1
10
13.810272
20
12.647537
42
0.014467
0
VERTEX
8
1
10
13.464348
20
12.514023
0
VERTEX
8
1
10
13.492393
20
12.625351
42
-0.057034
0
VERTEX
8
1
10
13.711998
20
12.754181
42
-0.049560
0
VERTEX
8
1
10
13.952515
20
12.782593
42
0.048577
0
VERTEX
8
1
10
14.066322
20
12.796417
42
0.563272
0
VERTEX
8
1
10
14.078407
20
12.839859
42
0.079307
0
VERTEX
8
1
10
14.020813
20
12.902985
0
VERTEX
8
1
10
14.283730
20
12.916809
0
VERTEX
8
1
10
14.922104
20
12.777878
42
0.004953
0
VERTEX
8
1
10
14.066437
20
12.719635
42
0.037711
0
SEQEND
0
POLYLINE
8
1
66
1
70
1
0
VERTEX
8
1
10
15.339401
20
11.791290
42
-0.208791
0
VERTEX
8
1
10
15.162590
20
11.358444
42
-0.102429
0
VERTEX
8
1
10
14.893051
20
11.185699
0
VERTEX
8
1
10
14.798363
20
11.152542
0
VERTEX
8
1
10
14.691200
20
11.125137
42
-0.264160
0
VERTEX
8
1
10
14.130760
20
11.476776
42
-0.047405
0
VERTEX
8
1
10
14.055450
20
11.643677
0
VERTEX
8
1
10
14.063461
20
11.651993
42
0.033164
0
VERTEX
8
1
10
14.265427
20
11.652588
42
0.103876
0
VERTEX
8
1
10
14.479439
20
11.380875
42
0.174202
0
VERTEX
8
1
10
14.679764
20
11.307968
42
0.227045
0
VERTEX
8
1
10
15.069664
20
11.449417
42
0.087285
0
VERTEX
8
1
10
15.281425
20
11.766968
0
VERTEX
8
1
10
15.297920
20
11.791809
0
VERTEX
8
1
10
15.338600
20
11.791809
42
-0.873372
0
SEQEND
0
POLYLINE
8
1
66
1
70
1
0
VERTEX
8
1
10
15.698433
20
13.402756
42
-0.061218
0
VERTEX
8
1
10
15.302834
20
13.408157
0
VERTEX
8
1
10
15.269905
20
13.416809
42
0.218972
0
VERTEX
8
1
10
15.117500
20
13.701462
42
0.003170
0
VERTEX
8
1
10
15.412880
20
13.659271
42
-0.111601
0
VERTEX
8
1
10
15.520187
20
13.602188
0
VERTEX
8
1
10
15.533272
20
13.595093
42
-0.200682
0
VERTEX
8
1
10
15.648605
20
13.504745
42
-0.069692
0
SEQEND
0
POLYLINE
8
1
66
1
70
1
0
VERTEX
8
1
10
15.617126
20
10.639023
0
VERTEX
8
1
10
15.478241
20
10.777924
0
VERTEX
8
1
10
15.589348
20
10.875137
0
VERTEX
8
1
10
15.728241
20
10.736252
0
SEQEND
0
POLYLINE
8
1
66
1
70
1
0
VERTEX
8
1
10
15.992218
20
13.389145
42
-0.018600
0
VERTEX
8
1
10
15.728241
20
13.569580
42
-0.396712
0
VERTEX
8
1
10
15.714531
20
13.708405
0
VERTEX
8
1
10
15.922729
20
13.638840
42
0.300575
0
VERTEX
8
1
10
16.016281
20
13.567368
42
-0.119807
0
VERTEX
8
1
10
16.103142
20
13.528015
0
SEQEND
0
POLYLINE
8
1
66
1
70
1
0
VERTEX
8
1
10
15.908791
20
10.986252
0
VERTEX
8
1
10
15.742126
20
11.111252
0
VERTEX
8
1
10
15.839348
20
11.222366
0
VERTEX
8
1
10
15.992126
20
11.125137
0
SEQEND
0
POLYLINE
8
1
66
1
70
1
0
VERTEX
8
1
10
16.117126
20
11.486252
0
VERTEX
8
1
10
15.922684
20
11.555695
0
VERTEX
8
1
10
15.964348
20
11.708466
0
VERTEX
8
1
10
16.158791
20
11.639023
0
SEQEND
0
POLYLINE
8
1
66
1
0
VERTEX
8
1
10
12.640335
20
11.678741
42
0.013456
0
VERTEX
8
1
10
12.631035
20
11.801849
0
VERTEX
8
1
10
12.531807
20
11.792526
0
VERTEX
8
1
10
12.523697
20
11.865799
0
VERTEX
8
1
10
12.509430
20
11.960037
0
VERTEX
8
1
10
12.607407
20
11.976532
0
VERTEX
8
1
10
12.607628
20
11.976883
42
0.026351
0
VERTEX
8
1
10
12.553093
20
12.217865
0
VERTEX
8
1
10
12.457352
20
12.191635
0
VERTEX
8
1
10
12.456810
20
12.192322
42
0.012516
0
VERTEX
8
1
10
12.407272
20
12.353485
0
VERTEX
8
1
10
12.499474
20
12.386307
42
0.025256
0
VERTEX
8
1
10
12.402199
20
12.614105
0
VERTEX
8
1
10
12.399406
20
12.613190
0
VERTEX
8
1
10
12.312271
20
12.571518
42
0.023838
0
VERTEX
8
1
10
12.231949
20
12.720428
0
VERTEX
8
1
10
12.315659
20
12.769241
0
VERTEX
8
1
10
12.317574
20
12.770889
42
0.027556
0
VERTEX
8
1
10
12.178497
20
12.977051
0
VERTEX
8
1
10
12.100929
20
12.919373
0
VERTEX
8
1
10
12.098648
20
12.918045
42
0.029271
0
VERTEX
8
1
10
11.990059
20
13.048019
0
VERTEX
8
1
10
12.063011
20
13.113129
0
VERTEX
8
1
10
12.063629
20
13.114609
42
0.033992
0
VERTEX
8
1
10
11.883820
20
13.288666
0
VERTEX
8
1
10
11.819275
20
13.214310
0
VERTEX
8
1
10
11.818352
20
13.214294
42
0.024406
0
VERTEX
8
1
10
11.684456
20
13.318085
0
VERTEX
8
1
10
11.741608
20
13.398453
42
0.036975
0
VERTEX
8
1
10
11.524239
20
13.527649
0
VERTEX
8
1
10
11.479225
20
13.440018
42
0.020605
0
VERTEX
8
1
10
11.323517
20
13.509216
0
VERTEX
8
1
10
11.358559
20
13.600494
42
0.040288
0
VERTEX
8
1
10
11.114700
20
13.671188
0
VERTEX
8
1
10
11.113731
20
13.669327
0
VERTEX
8
1
10
11.093498
20
13.574814
42
0.027820
0
VERTEX
8
1
10
10.925095
20
13.600189
0
VERTEX
8
1
10
10.934227
20
13.696411
0
VERTEX
8
1
10
10.933853
20
13.698441
42
0.031013
0
VERTEX
8
1
10
10.682014
20
13.704056
0
VERTEX
8
1
10
10.681808
20
13.700851
0
VERTEX
8
1
10
10.685387
20
13.605499
42
0.021720
0
VERTEX
8
1
10
10.515327
20
13.592194
0
VERTEX
8
1
10
10.503952
20
13.687958
0
VERTEX
8
1
10
10.503197
20
13.690109
42
0.027157
0
VERTEX
8
1
10
10.255798
20
13.647446
0
VERTEX
8
1
10
10.278938
20
13.551559
42
0.023880
0
VERTEX
8
1
10
10.115242
20
13.504074
0
VERTEX
8
1
10
10.082733
20
13.597153
42
0.039655
0
VERTEX
8
1
10
9.849663
20
13.497498
0
VERTEX
8
1
10
9.895432
20
13.410477
42
0.031765
0
VERTEX
8
1
10
9.748947
20
13.324600
0
VERTEX
8
1
10
9.747223
20
13.326614
0
VERTEX
8
1
10
9.695511
20
13.402786
0
VERTEX
8
1
10
9.692940
20
13.406158
42
0.041179
0
VERTEX
8
1
10
9.493439
20
13.249634
0
VERTEX
8
1
10
9.559441
20
13.179398
0
VERTEX
8
1
10
9.561111
20
13.177200
42
0.025674
0
VERTEX
8
1
10
9.443459
20
13.055435
0
VERTEX
8
1
10
9.368851
20
13.118484
0
VERTEX
8
1
10
9.367241
20
13.118973
42
0.034785
0
VERTEX
8
1
10
9.217438
20
12.916687
0
VERTEX
8
1
10
9.301918
20
12.864380
0
VERTEX
8
1
10
9.256729
20
12.787872
0
VERTEX
8
1
10
9.219124
20
12.716736
0
VERTEX
8
1
10
9.129890
20
12.760330
42
0.033869
0
VERTEX
8
1
10
9.033173
20
12.530121
0
VERTEX
8
1
10
9.126549
20
12.498093
0
VERTEX
8
1
10
9.127136
20
12.497238
42
0.018121
0
VERTEX
8
1
10
9.077820
20
12.335983
0
VERTEX
8
1
10
8.981537
20
12.360611
0
SEQEND
0
POLYLINE
8
1
66
1
0
VERTEX
8
1
10
5.893097
20
13.962921
42
0.019995
0
VERTEX
8
1
10
5.932846
20
14.084488
0
VERTEX
8
1
10
5.930519
20
14.085693
0
VERTEX
8
1
10
5.850708
20
14.108871
0
VERTEX
8
1
10
5.850517
20
14.109299
42
0.017674
0
VERTEX
8
1
10
5.875809
20
14.208542
0
VERTEX
8
1
10
5.959724
20
14.189941
42
0.019940
0
VERTEX
8
1
10
5.986168
20
14.339279
0
VERTEX
8
1
10
5.901031
20
14.351044
0
VERTEX
8
1
10
5.905518
20
14.385269
0
VERTEX
8
1
10
5.912125
20
14.453186
0
VERTEX
8
1
10
5.914711
20
14.453323
0
VERTEX
8
1
10
5.997528
20
14.446762
0
VERTEX
8
1
10
5.997871
20
14.447250
42
0.032640
0
VERTEX
8
1
10
6.001495
20
14.635086
0
VERTEX
8
1
10
5.914139
20
14.610764
0
VERTEX
8
1
10
5.912560
20
14.614166
0
VERTEX
8
1
10
5.900986
20
14.735016
0
VERTEX
8
1
10
5.905899
20
14.737076
0
VERTEX
8
1
10
5.996719
20
14.766708
0
VERTEX
8
1
10
5.957001
20
14.956390
0
VERTEX
8
1
10
5.954521
20
14.966644
0
VERTEX
8
1
10
5.867699
20
14.936447
0
VERTEX
8
1
10
5.864525
20
14.937454
0
VERTEX
8
1
10
5.829582
20
15.077347
0
VERTEX
8
1
10
5.831413
20
15.079666
0
VERTEX
8
1
10
5.906647
20
15.091782
0
VERTEX
8
1
10
5.905067
20
15.098297
0
VERTEX
8
1
10
5.871002
20
15.216858
0
SEQEND
0
POLYLINE
8
1
66
1
0
VERTEX
8
1
10
3.655640
20
15.059784
0
VERTEX
8
1
10
3.649178
20
15.034790
0
VERTEX
8
1
10
3.649155
20
15.033783
0
VERTEX
8
1
10
3.736336
20
15.008377
42
0.015386
0
VERTEX
8
1
10
3.710510
20
14.895691
0
VERTEX
8
1
10
3.621559
20
14.914444
42
0.023527
0
VERTEX
8
1
10
3.597130
20
14.743805
0
VERTEX
8
1
10
3.686592
20
14.734970
0
VERTEX
8
1
10
3.687447
20
14.734436
42
0.017292
0
VERTEX
8
1
10
3.683052
20
14.677078
0
SEQEND
0
POLYLINE
8
1
66
1
0
VERTEX
8
1
10
12.162819
20
11.422638
0
VERTEX
8
1
10
12.329483
20
11.339310
0
VERTEX
8
1
10
12.311569
20
11.125137
0
SEQEND
0
POLYLINE
8
1
66
1
0
VERTEX
8
1
10
12.394905
20
12.027924
0
VERTEX
8
1
10
12.283791
20
11.875137
0
VERTEX
8
1
10
12.325462
20
11.639023
0
SEQEND
0
POLYLINE
8
1
66
1
0
VERTEX
8
1
10
12.079491
20
12.422577
0
VERTEX
8
1
10
12.214348
20
12.347366
0
VERTEX
8
1
10
12.246147
20
12.172592
0
SEQEND
0
POLYLINE
8
1
66
1
0
VERTEX
8
1
10
11.867126
20
12.944580
0
VERTEX
8
1
10
11.881012
20
12.847366
0
VERTEX
8
1
10
11.964348
20
12.722366
0
SEQEND
0
POLYLINE
8
1
66
1
0
VERTEX
8
1
10
11.436569
20
13.264023
0
VERTEX
8
1
10
11.533791
20
13.264023
0
VERTEX
8
1
10
11.658791
20
13.097366
0
SEQEND
0
POLYLINE
8
1
66
1
0
VERTEX
8
1
10
12.408791
20
10.902924
0
VERTEX
8
1
10
12.269905
20
10.847366
0
VERTEX
8
1
10
12.200462
20
10.625137
0
SEQEND
0
LINE
8
1
10
10.853241
20
13.500137
11
10.742126
21
13.305695
0
LINE
8
1
10
11.033791
20
9.949203
11
11.107857
21
9.726990
0
POLYLINE
8
1
66
1
0
VERTEX
8
1
10
12.089348
20
10.430695
0
VERTEX
8
1
10
12.089348
20
10.333466
0
VERTEX
8
1
10
11.964348
20
10.152924
0
SEQEND
0
POLYLINE
8
1
66
1
0
VERTEX
8
1
10
10.809425
20
10.034760
42
-0.125800
0
VERTEX
8
1
10
10.274139
20
10.007828
0
VERTEX
8
1
10
10.203560
20
10.027451
42
-0.133891
0
VERTEX
8
1
10
9.700165
20
10.373260
0
VERTEX
8
1
10
9.646881
20
10.436798
0
VERTEX
8
1
10
9.596169
20
10.504105
0
VERTEX
8
1
10
9.548180
20
10.574966
42
-0.163567
0
VERTEX
8
1
10
9.238739
20
11.892471
42
-0.107187
0
VERTEX
8
1
10
9.445229
20
12.623505
42
-0.106162
0
VERTEX
8
1
10
9.758370
20
12.982849
0
SEQEND
0
POLYLINE
8
1
66
1
0
VERTEX
8
1
10
10.183167
20
13.170578
42
-0.092754
0
VERTEX
8
1
10
10.642044
20
13.183029
42
-0.142756
0
VERTEX
8
1
10
11.168304
20
12.907166
0
VERTEX
8
1
10
11.224411
20
12.851639
42
-0.126783
0
VERTEX
8
1
10
11.624588
20
12.100113
0
VERTEX
8
1
10
11.645828
20
12.009171
42
-0.121882
0
VERTEX
8
1
10
11.594490
20
10.871780
42
-0.137202
0
VERTEX
8
1
10
11.208908
20
10.256561
0
SEQEND
0
LINE
8
1
10
10.635635
20
9.828827
11
10.663414
21
9.634384
0
LINE
8
1
10
10.256012
20
13.444580
11
10.256012
21
13.305695
0
POLYLINE
8
1
66
1
0
VERTEX
8
1
10
10.436569
20
11.722366
42
-0.389531
0
VERTEX
8
1
10
10.516319
20
11.563843
0
VERTEX
8
1
10
10.506012
20
11.527924
0
SEQEND
0
POLYLINE
8
1
66
1
0
VERTEX
8
1
10
11.033791
20
12.305695
42
-0.202875
0
VERTEX
8
1
10
11.253288
20
11.421051
42
-0.107593
0
VERTEX
8
1
10
11.006012
20
10.791809
0
SEQEND
0
LINE
8
1
10
15.339348
20
14.930695
11
14.019905
21
14.958466
0
POLYLINE
8
1
66
1
0
VERTEX
8
1
10
14.381012
20
13.680695
0
VERTEX
8
1
10
13.987495
20
13.680695
0
VERTEX
8
1
10
14.006027
20
14.810318
0
SEQEND
0
LINE
8
1
10
15.506012
20
14.162170
11
15.506012
21
13.777924
0
LINE
8
1
10
14.186569
20
14.791809
11
14.163422
21
13.819580
0
LINE
8
1
10
14.353241
20
14.764023
11
14.348602
21
13.791809
0
LINE
8
1
10
14.575462
20
14.777924
11
14.561584
21
13.810318
0
LINE
8
1
10
14.769905
20
14.764023
11
14.756027
21
13.884384
0
LINE
8
1
10
14.931938
20
14.754761
11
14.922699
21
13.912170
0
LINE
8
1
10
15.126381
20
14.754761
11
15.126381
21
13.912170
0
LINE
8
1
10
15.320831
20
14.745499
11
15.311584
21
13.902924
0
POLYLINE
8
1
66
1
0
VERTEX
8
1
10
9.450462
20
14.208466
0
VERTEX
8
1
10
9.433990
20
14.196045
0
VERTEX
8
1
10
9.417801
20
14.183273
0
VERTEX
8
1
10
9.401878
20
14.170151
42
0.175548
0
VERTEX
8
1
10
8.464447
20
12.438599
0
VERTEX
8
1
10
8.450462
20
12.333466
0
SEQEND
0
POLYLINE
8
1
66
1
0
VERTEX
8
1
10
9.644905
20
15.930695
0
VERTEX
8
1
10
9.653320
20
15.931259
42
-0.003969
0
VERTEX
8
1
10
11.117126
20
15.939941
0
VERTEX
8
1
10
12.084717
20
15.782547
0
SEQEND
0
POLYLINE
8
1
66
1
0
VERTEX
8
1
10
8.464348
20
16.916809
42
0.149981
0
VERTEX
8
1
10
8.341331
20
16.986725
42
0.082469
0
VERTEX
8
1
10
8.055832
20
17.014328
42
0.018108
0
VERTEX
8
1
10
7.183067
20
16.942215
42
0.143316
0
VERTEX
8
1
10
7.067986
20
16.764450
42
0.075146
0
VERTEX
8
1
10
7.012726
20
16.426468
42
0.021084
0
VERTEX
8
1
10
7.005974
20
15.820679
42
0.188866
0
VERTEX
8
1
10
7.081268
20
15.651642
42
0.158840
0
VERTEX
8
1
10
7.151596
20
15.624496
0
VERTEX
8
1
10
7.186790
20
15.622772
42
0.009559
0
VERTEX
8
1
10
8.239754
20
15.634140
0
VERTEX
8
1
10
8.464394
20
15.639038
42
0.203790
0
VERTEX
8
1
10
8.694580
20
15.748810
42
0.101595
0
VERTEX
8
1
10
8.728241
20
15.819580
0
SEQEND
0
POLYLINE
8
1
66
1
0
VERTEX
8
1
10
6.756012
20
16.361252
0
VERTEX
8
1
10
6.742126
20
15.486252
0
VERTEX
8
1
10
6.736580
20
15.479675
42
0.183559
0
VERTEX
8
1
10
6.691940
20
15.249466
0
VERTEX
8
1
10
6.695534
20
15.221924
0
VERTEX
8
1
10
6.700462
20
15.194580
0
VERTEX
8
1
10
6.697144
20
15.165512
42
0.021111
0
VERTEX
8
1
10
6.670776
20
14.323380
42
0.021967
0
VERTEX
8
1
10
6.714348
20
13.139023
42
0.018369
0
VERTEX
8
1
10
7.179314
20
13.089767
42
0.002184
0
VERTEX
8
1
10
8.408791
20
12.986252
0
SEQEND
0
POLYLINE
8
1
66
1
0
VERTEX
8
1
10
8.881012
20
15.666809
42
-0.210321
0
VERTEX
8
1
10
8.671410
20
15.469162
42
-0.099691
0
VERTEX
8
1
10
8.421272
20
15.429062
42
-0.010738
0
VERTEX
8
1
10
7.422112
20
15.443008
0
VERTEX
8
1
10
7.158493
20
15.450272
0
VERTEX
8
1
10
6.894905
20
15.458466
0
SEQEND
0
POLYLINE
8
1
66
1
0
VERTEX
8
1
10
9.047684
20
15.611252
42
0.125783
0
VERTEX
8
1
10
8.972412
20
15.603561
42
0.341663
0
VERTEX
8
1
10
8.950470
20
15.562820
0
VERTEX
8
1
10
8.950462
20
15.375748
0
VERTEX
8
1
10
8.951866
20
15.375366
0
VERTEX
8
1
10
9.033791
20
15.389023
0
SEQEND
0
POLYLINE
8
1
66
1
0
VERTEX
8
1
10
9.019905
20
15.222366
0
VERTEX
8
1
10
9.019905
20
15.083694
0
VERTEX
8
1
10
9.018394
20
15.075668
42
0.042272
0
VERTEX
8
1
10
9.006676
20
14.752960
42
0.005309
0
VERTEX
8
1
10
9.033791
20
13.986252
0
SEQEND
0
POLYLINE
8
1
66
1
0
VERTEX
8
1
10
9.964348
20
15.055695
42
0.211983
0
VERTEX
8
1
10
9.923500
20
14.953583
42
0.024870
0
VERTEX
8
1
10
9.944000
20
14.580658
0
VERTEX
8
1
10
9.950462
20
14.500137
0
SEQEND
0
POLYLINE
8
1
66
1
0
VERTEX
8
1
10
8.381012
20
12.611252
42
-0.008071
0
VERTEX
8
1
10
6.626709
20
12.827286
0
VERTEX
8
1
10
6.575073
20
12.835800
0
VERTEX
8
1
10
6.537697
20
12.842972
0
VERTEX
8
1
10
6.517731
20
12.856186
0
VERTEX
8
1
10
6.509399
20
12.900742
42
-0.023010
0
VERTEX
8
1
10
6.462402
20
13.651947
42
-0.011935
0
VERTEX
8
1
10
6.449577
20
15.155197
42
0.476232
0
VERTEX
8
1
10
6.489059
20
15.134567
42
-0.090005
0
VERTEX
8
1
10
6.561554
20
15.137726
0
SEQEND
0
LINE
8
1
10
8.853310
20
15.084442
11
6.909172
21
15.129639
0
LINE
8
1
10
9.797844
20
15.062469
11
9.603165
21
15.067001
0
LINE
8
1
10
12.478615
20
15.000122
11
10.158768
21
15.054077
0
LINE
8
1
10
13.672684
20
14.972366
11
13.200638
21
14.983337
0
POLYLINE
8
1
66
1
0
VERTEX
8
1
10
6.126389
20
15.226990
0
VERTEX
8
1
10
6.080078
20
12.865875
0
VERTEX
8
1
10
5.894905
20
12.875137
0
SEQEND
0
POLYLINE
8
1
66
1
0
VERTEX
8
1
10
6.348610
20
15.088104
0
VERTEX
8
1
10
6.246742
20
15.088104
0
VERTEX
8
1
10
6.246742
20
13.328827
0
VERTEX
8
1
10
6.339348
20
13.310318
0
SEQEND
0
LINE
8
1
10
6.228241
20
12.875137
11
6.339348
21
12.856613
0
LINE
8
1
10
6.441193
20
15.291809
11
6.181946
21
15.282547
0
POLYLINE
8
1
66
1
0
VERTEX
8
1
10
5.786247
20
14.768509
0
VERTEX
8
1
10
5.710876
20
14.653061
0
VERTEX
8
1
10
5.728714
20
14.468536
0
SEQEND
0
POLYLINE
8
1
66
1
0
VERTEX
8
1
10
5.601654
20
15.084000
0
VERTEX
8
1
10
5.683914
20
15.021713
0
VERTEX
8
1
10
5.697693
20
14.885101
0
SEQEND
0
POLYLINE
8
1
66
1
0
VERTEX
8
1
10
5.486473
20
15.495422
0
VERTEX
8
1
10
5.491737
20
15.419525
0
VERTEX
8
1
10
5.539795
20
15.320084
0
SEQEND
0
POLYLINE
8
1
66
1
0
VERTEX
8
1
10
5.226677
20
15.755829
0
VERTEX
8
1
10
5.287903
20
15.753036
0
VERTEX
8
1
10
5.360703
20
15.620041
0
SEQEND
0
LINE
8
1
10
4.867775
20
15.955948
11
4.790916
21
15.808167
0
LINE
8
1
10
4.489761
20
15.929993
11
4.484825
21
15.822144
0
POLYLINE
8
1
66
1
0
VERTEX
8
1
10
14.408791
20
13.305695
42
-0.151040
0
VERTEX
8
1
10
14.552834
20
13.607224
42
-0.289956
0
VERTEX
8
1
10
14.914398
20
13.680420
0
VERTEX
8
1
10
14.941498
20
13.666489
42
-0.133257
0
VERTEX
8
1
10
15.095207
20
13.484497
0
VERTEX
8
1
10
15.106224
20
13.464569
0
VERTEX
8
1
10
15.117126
20
13.444580
0
SEQEND
0
POLYLINE
8
1
66
1
0
VERTEX
8
1
10
13.492126
20
13.444580
42
0.250976
0
VERTEX
8
1
10
13.341255
20
13.241959
0
VERTEX
8
1
10
13.338417
20
13.206390
0
VERTEX
8
1
10
13.339348
20
13.166809
0
SEQEND
0
LINE
8
1
10
12.922684
20
12.083466
11
13.228241
21
12.111252
0
POLYLINE
8
1
66
1
0
VERTEX
8
1
10
13.464348
20
12.347366
0
VERTEX
8
1
10
13.422684
20
11.930695
42
0.031753
0
VERTEX
8
1
10
13.884773
20
11.848282
0
VERTEX
8
1
10
13.901405
20
11.847504
42
0.007325
0
VERTEX
8
1
10
14.799446
20
11.886917
0
VERTEX
8
1
10
15.104126
20
11.901718
0
VERTEX
8
1
10
15.408791
20
11.916809
0
VERTEX
8
1
10
15.450462
20
12.680695
0
SEQEND
0
POLYLINE
8
1
66
1
0
VERTEX
8
1
10
15.089348
20
12.833466
0
VERTEX
8
1
10
15.492126
20
12.847366
0
VERTEX
8
1
10
15.492126
20
13.027924
0
SEQEND
0
LINE
8
1
10
15.019905
20
13.319580
11
14.964348
21
13.222366
0
POLYLINE
8
1
66
1
0
VERTEX
8
1
10
14.589348
20
13.305695
42
-0.147042
0
VERTEX
8
1
10
14.564766
20
13.018936
0
VERTEX
8
1
10
14.547684
20
12.986252
0
SEQEND
0
LINE
8
1
10
15.519905
20
13.152924
11
16.242126
21
13.180695
0
POLYLINE
8
1
66
1
0
VERTEX
8
1
10
16.228241
20
13.389023
42
-0.035709
0
VERTEX
8
1
10
16.475563
20
13.266144
0
VERTEX
8
1
10
16.496277
20
13.250580
0
VERTEX
8
1
10
16.507439
20
13.237564
0
VERTEX
8
1
10
16.506798
20
13.227905
0
VERTEX
8
1
10
16.492126
20
13.222366
42
0.002784
0
VERTEX
8
1
10
16.357552
20
13.208847
42
0.838243
0
VERTEX
8
1
10
16.356712
20
13.189362
0
VERTEX
8
1
10
16.367126
20
13.180695
0
VERTEX
8
1
10
16.382492
20
13.171112
42
0.063811
0
VERTEX
8
1
10
16.631012
20
13.097366
0
SEQEND
0
POLYLINE
8
1
66
1
0
VERTEX
8
1
10
16.006012
20
13.000137
42
0.087843
0
VERTEX
8
1
10
15.959198
20
12.844864
42
0.458915
0
VERTEX
8
1
10
15.978241
20
12.819580
42
0.002558
0
VERTEX
8
1
10
16.881012
20
12.861252
0
SEQEND
0
POLYLINE
8
1
66
1
0
VERTEX
8
1
10
16.033791
20
12.680695
0
VERTEX
8
1
10
15.992195
20
12.124954
0
VERTEX
8
1
10
16.000458
20
12.107407
42
0.376998
0
VERTEX
8
1
10
16.156349
20
12.030762
42
-0.015872
0
VERTEX
8
1
10
16.644905
20
12.055695
0
SEQEND
0
POLYLINE
8
1
66
1
0
VERTEX
8
1
10
15.644905
20
14.069580
42
0.037439
0
VERTEX
8
1
10
15.898102
20
13.971878
0
VERTEX
8
1
10
15.926971
20
13.966812
0
VERTEX
8
1
10
15.945747
20
13.968506
42
0.156078
0
VERTEX
8
1
10
15.971290
20
14.034866
0
SEQEND
0
POLYLINE
8
1
66
1
0
VERTEX
8
1
10
13.339348
20
13.551056
42
0.265583
0
VERTEX
8
1
10
13.432632
20
13.534592
42
0.129918
0
VERTEX
8
1
10
13.543053
20
13.606613
0
SEQEND
0
POLYLINE
8
1
66
1
0
VERTEX
8
1
10
15.839348
20
13.736252
42
-0.239033
0
VERTEX
8
1
10
15.911652
20
13.821579
0
VERTEX
8
1
10
15.933853
20
13.824005
42
-0.228312
0
VERTEX
8
1
10
16.089348
20
13.717728
0
SEQEND
0
POLYLINE
8
1
66
1
0
VERTEX
8
1
10
14.468964
20
13.217728
0
VERTEX
8
1
10
14.285011
20
13.217728
0
VERTEX
8
1
10
14.284019
20
13.216751
42
-0.145129
0
VERTEX
8
1
10
14.277992
20
13.059097
0
VERTEX
8
1
10
14.265007
20
13.039063
0
VERTEX
8
1
10
14.246742
20
13.023285
0
SEQEND
0
LINE
8
1
10
12.117126
20
13.245499
11
12.441193
21
13.254761
0
POLYLINE
8
1
66
1
0
VERTEX
8
1
10
12.543053
20
13.365875
42
-0.159036
0
VERTEX
8
1
10
12.657410
20
13.400543
42
-0.298621
0
VERTEX
8
1
10
12.697388
20
13.360733
42
-0.163575
0
VERTEX
8
1
10
12.691483
20
13.214203
0
VERTEX
8
1
10
12.681938
20
13.199203
42
0.065651
0
VERTEX
8
1
10
12.845413
20
13.160004
42
0.322472
0
VERTEX
8
1
10
12.878990
20
13.177109
42
0.131011
0
VERTEX
8
1
10
12.900795
20
13.352280
42
0.333055
0
VERTEX
8
1
10
12.830078
20
13.421433
0
SEQEND
0
POLYLINE
8
1
66
1
0
VERTEX
8
1
10
12.996742
20
13.115875
42
-0.042010
0
VERTEX
8
1
10
13.033791
20
12.930695
0
VERTEX
8
1
10
13.039803
20
12.905930
0
VERTEX
8
1
10
13.052094
20
12.882309
42
0.174726
0
VERTEX
8
1
10
13.265274
20
12.754761
0
VERTEX
8
1
10
13.284187
20
12.754181
42
0.108295
0
VERTEX
8
1
10
13.450462
20
12.819580
0
SEQEND
0
LINE
8
1
10
12.904160
20
13.023285
11
12.996742
21
12.588104
0
ARC
8
1
10
13.525148
20
12.981227
40
0.409929
50
134.564634
51
158.061038
0
LINE
8
1
10
13.330078
20
12.939941
11
13.839348
21
12.912170
0
LINE
8
1
10
15.256012
20
10.611252
11
15.311569
21
10.430695
0
LINE
8
1
10
14.922684
20
10.514023
11
14.936569
21
10.361252
0
POLYLINE
8
1
66
1
0
VERTEX
8
1
10
16.325462
20
11.916809
0
VERTEX
8
1
10
16.422684
20
11.847366
0
VERTEX
8
1
10
16.381012
20
11.652924
0
SEQEND
0
POLYLINE
8
1
66
1
0
VERTEX
8
1
10
16.436569
20
11.472366
0
VERTEX
8
1
10
16.283791
20
11.430695
0
VERTEX
8
1
10
16.214348
20
11.250137
0
SEQEND
0
POLYLINE
8
1
66
1
0
VERTEX
8
1
10
16.117126
20
11.069580
0
VERTEX
8
1
10
16.103241
20
10.944580
0
VERTEX
8
1
10
16.006012
20
10.791809
0
SEQEND
0
ARC
8
1
10
10.859417
20
13.429374
40
0.680224
50
105.933233
51
147.803982
0
LINE
8
1
10
8.658791
20
12.597366
11
8.922684
21
12.625137
0
LINE
8
1
10
11.839348
20
13.541809
11
12.325462
21
13.500137
0
LINE
8
1
10
10.367126
20
14.861252
11
10.881012
21
14.861252
0
LINE
8
1
10
10.394905
20
14.694580
11
10.908791
21
14.694580
0
LINE
8
1
10
11.172684
20
14.861252
11
11.686569
21
14.861252
0
LINE
8
1
10
11.200462
20
14.694580
11
11.714348
21
14.694580
0
LINE
8
1
10
11.964348
20
14.847366
11
12.254242
21
14.847366
0
LINE
8
1
10
11.980026
20
14.680695
11
12.269905
21
14.680695
0
POLYLINE
8
1
66
1
0
VERTEX
8
1
10
2.913429
20
14.680695
0
VERTEX
8
1
10
2.765282
20
14.671432
0
VERTEX
8
1
10
2.765282
20
15.106613
0
SEQEND
0
POLYLINE
8
1
66
1
0
VERTEX
8
1
10
3.016891
20
14.079025
42
0.040736
0
VERTEX
8
1
10
2.843254
20
14.037781
0
VERTEX
8
1
10
2.871819
20
13.945404
0
VERTEX
8
1
10
2.871948
20
13.943604
42
0.029132
0
VERTEX
8
1
10
2.758080
20
13.900925
0
VERTEX
8
1
10
2.717453
20
13.991943
42
0.044849
0
VERTEX
8
1
10
2.552727
20
13.900925
0
VERTEX
8
1
10
2.608360
20
13.818207
42
0.032926
0
VERTEX
8
1
10
2.511772
20
13.744110
0
VERTEX
8
1
10
2.446396
20
13.818970
42
0.044305
0
VERTEX
8
1
10
2.315529
20
13.684845
0
VERTEX
8
1
10
2.391953
20
13.621262
42
0.022356
0
VERTEX
8
1
10
2.319412
20
13.523331
0
VERTEX
8
1
10
2.236282
20
13.578339
42
0.035615
0
VERTEX
8
1
10
2.145088
20
13.417648
0
VERTEX
8
1
10
2.234695
20
13.374115
42
0.022338
0
VERTEX
8
1
10
2.186157
20
13.261826
0
VERTEX
8
1
10
2.093086
20
13.297531
42
0.013471
0
VERTEX
8
1
10
2.062439
20
13.211761
0
SEQEND
0
POLYLINE
8
1
66
1
0
VERTEX
8
1
10
5.228249
20
12.986252
0
VERTEX
8
1
10
5.279877
20
13.060318
0
VERTEX
8
1
10
5.280716
20
13.063736
0
VERTEX
8
1
10
5.268639
20
13.093292
42
0.029555
0
VERTEX
8
1
10
5.357063
20
13.138412
0
VERTEX
8
1
10
5.358376
20
13.136780
0
VERTEX
8
1
10
5.400734
20
13.063232
42
0.046567
0
VERTEX
8
1
10
5.525864
20
13.155701
0
VERTEX
8
1
10
5.473022
20
13.218506
0
VERTEX
8
1
10
5.470505
20
13.222336
0
VERTEX
8
1
10
5.505920
20
13.256088
0
VERTEX
8
1
10
5.540840
20
13.293442
0
VERTEX
8
1
10
5.602608
20
13.235458
0
VERTEX
8
1
10
5.604073
20
13.234955
42
0.034623
0
VERTEX
8
1
10
5.695915
20
13.358093
0
VERTEX
8
1
10
5.693619
20
13.360123
0
VERTEX
8
1
10
5.625511
20
13.407242
42
0.024084
0
VERTEX
8
1
10
5.675880
20
13.495514
0
VERTEX
8
1
10
5.750595
20
13.453934
42
0.029990
0
VERTEX
8
1
10
5.811882
20
13.594818
0
VERTEX
8
1
10
5.733093
20
13.627106
42
0.018000
0
VERTEX
8
1
10
5.764587
20
13.724426
0
VERTEX
8
1
10
5.845573
20
13.699066
42
0.023796
0
VERTEX
8
1
10
5.871201
20
13.808655
0
SEQEND
0
POLYLINE
8
1
66
1
0
VERTEX
8
1
10
5.618607
20
14.305206
0
VERTEX
8
1
10
5.720604
20
14.235718
0
VERTEX
8
1
10
5.701752
20
14.069916
0
SEQEND
0
POLYLINE
8
1
66
1
0
VERTEX
8
1
10
5.755043
20
13.894608
0
VERTEX
8
1
10
5.665642
20
13.855469
0
VERTEX
8
1
10
5.614059
20
13.684937
0
SEQEND
0
LINE
8
1
10
4.855461
20
13.193695
11
4.894226
21
13.019012
0
POLYLINE
8
1
66
1
0
VERTEX
8
1
10
5.537155
20
13.537155
0
VERTEX
8
1
10
5.533699
20
13.461655
0
VERTEX
8
1
10
5.448616
20
13.325073
0
SEQEND
0
POLYLINE
8
1
66
1
0
VERTEX
8
1
10
4.718864
20
13.302933
42
-0.167935
0
VERTEX
8
1
10
4.401703
20
13.298721
0
VERTEX
8
1
10
4.353500
20
13.320419
42
-0.129627
0
VERTEX
8
1
10
4.100044
20
13.571259
0
VERTEX
8
1
10
4.064896
20
13.630386
0
VERTEX
8
1
10
4.032082
20
13.693680
0
VERTEX
8
1
10
4.001747
20
13.760834
0
VERTEX
8
1
10
3.973991
20
13.831543
0
VERTEX
8
1
10
3.948944
20
13.905502
0
VERTEX
8
1
10
3.926727
20
13.982437
42
-0.138430
0
VERTEX
8
1
10
3.959358
20
15.171661
42
-0.128898
0
VERTEX
8
1
10
4.212677
20
15.583420
0
SEQEND
0
POLYLINE
8
1
66
1
0
VERTEX
8
1
10
4.434174
20
15.719360
0
VERTEX
8
1
10
4.473587
20
15.726410
42
-0.202566
0
VERTEX
8
1
10
4.893166
20
15.633255
42
-0.111654
0
VERTEX
8
1
10
5.139839
20
15.343140
0
VERTEX
8
1
10
5.172440
20
15.279770
42
-0.115421
0
VERTEX
8
1
10
5.328529
20
14.480789
42
-0.088648
0
VERTEX
8
1
10
5.196976
20
13.769516
42
-0.101757
0
VERTEX
8
1
10
4.976608
20
13.427292
0
SEQEND
0
LINE
8
1
10
4.600487
20
13.111664
11
4.611053
21
12.959900
0
POLYLINE
8
1
66
1
0
VERTEX
8
1
10
4.939095
20
15.023361
42
-0.152656
0
VERTEX
8
1
10
5.056519
20
14.411987
42
-0.108810
0
VERTEX
8
1
10
4.867844
20
13.848709
0
SEQEND
0
POLYLINE
8
1
66
1
0
VERTEX
8
1
10
3.823517
20
12.833038
42
0.311065
0
VERTEX
8
1
10
3.874535
20
12.775696
42
0.013426
0
VERTEX
8
1
10
4.481155
20
12.678955
42
0.002609
0
VERTEX
8
1
10
8.214348
20
12.152924
0
SEQEND
0
LINE
8
1
10
8.225510
20
12.380920
11
4.424095
21
12.926575
0
POLYLINE
8
1
66
1
0
VERTEX
8
1
10
2.580101
20
15.088104
0
VERTEX
8
1
10
2.024284
20
15.097458
42
0.328766
0
VERTEX
8
1
10
1.965607
20
15.073242
42
0.142789
0
VERTEX
8
1
10
1.928490
20
14.928909
42
0.018014
0
VERTEX
8
1
10
1.924339
20
14.172226
42
0.101120
0
VERTEX
8
1
10
1.950470
20
14.097366
0
SEQEND
0
POLYLINE
8
1
66
1
0
VERTEX
8
1
10
1.894920
20
13.208466
42
-0.085280
0
VERTEX
8
1
10
2.099915
20
14.007797
42
-0.103825
0
VERTEX
8
1
10
2.362617
20
14.364044
42
-0.121764
0
VERTEX
8
1
10
2.644920
20
14.504761
0
SEQEND
0
POLYLINE
8
1
66
1
0
VERTEX
8
1
10
2.283806
20
14.134384
42
-0.150206
0
VERTEX
8
1
10
2.668839
20
14.332016
42
-0.177502
0
VERTEX
8
1
10
2.954193
20
14.268250
42
-0.092775
0
VERTEX
8
1
10
3.240280
20
14.002792
42
-0.082818
0
VERTEX
8
1
10
3.543678
20
13.421204
42
-0.051577
0
VERTEX
8
1
10
3.680618
20
12.819305
0
VERTEX
8
1
10
3.693344
20
12.727844
0
VERTEX
8
1
10
3.737503
20
12.745499
0
SEQEND
0
POLYLINE
8
1
66
1
0
VERTEX
8
1
10
1.790741
20
13.402924
0
VERTEX
8
1
10
1.464348
20
13.389023
0
VERTEX
8
1
10
1.450462
20
13.145966
0
SEQEND
0
POLYLINE
8
1
66
1
0
VERTEX
8
1
10
1.387962
20
13.895966
42
0.206240
0
VERTEX
8
1
10
1.351517
20
13.791534
0
VERTEX
8
1
10
1.359268
20
13.773621
0
VERTEX
8
1
10
1.374069
20
13.757080
0
SEQEND
0
LINE
8
1
10
5.200462
20
12.319565
11
4.117126
21
12.310318
0
LINE
8
1
10
6.394905
20
12.143646
11
6.793060
21
12.152908
0
ARC
8
1
10
7.091489
20
12.322750
40
0.336520
50
-90.364525
51
-32.155758
0
LINE
8
1
10
6.802299
20
12.023285
11
6.904167
21
11.699203
0
LINE
8
1
10
6.478241
20
11.773285
11
6.756012
21
11.764008
0
POLYLINE
8
1
66
1
0
VERTEX
8
1
10
3.720139
20
13.443192
0
VERTEX
8
1
10
3.727928
20
13.369812
0
VERTEX
8
1
10
3.774590
20
13.275482
0
SEQEND
0
POLYLINE
8
1
66
1
0
VERTEX
8
1
10
4.037537
20
12.202362
0
VERTEX
8
1
10
4.132233
20
12.132950
0
VERTEX
8
1
10
4.108162
20
11.977386
0
SEQEND
0
POLYLINE
8
1
66
1
0
VERTEX
8
1
10
4.087769
20
11.819305
0
VERTEX
8
1
10
4.001076
20
11.785782
0
VERTEX
8
1
10
3.945580
20
11.626938
0
SEQEND
0
LINE
8
1
10
3.246742
20
13.773285
11
3.219978
21
13.688019
0
LINE
8
1
10
3.185631
20
11.220428
11
3.216209
21
11.054276
0
POLYLINE
8
1
66
1
0
VERTEX
8
1
10
3.919464
20
11.464691
0
VERTEX
8
1
10
3.913414
20
11.393646
0
VERTEX
8
1
10
3.827240
20
11.268082
0
SEQEND
0
POLYLINE
8
1
66
1
0
VERTEX
8
1
10
3.056496
20
11.294403
42
-0.155268
0
VERTEX
8
1
10
2.727852
20
11.304459
42
-0.140502
0
VERTEX
8
1
10
2.461563
20
11.524979
42
-0.107065
0
VERTEX
8
1
10
2.242020
20
12.057907
42
-0.137062
0
VERTEX
8
1
10
2.329773
20
13.109268
42
-0.136241
0
VERTEX
8
1
10
2.610199
20
13.502396
0
SEQEND
0
POLYLINE
8
1
66
1
0
VERTEX
8
1
10
3.685341
20
12.440125
42
-0.087573
0
VERTEX
8
1
10
3.544434
20
11.777222
42
-0.108006
0
VERTEX
8
1
10
3.309776
20
11.436081
0
SEQEND
0
POLYLINE
8
1
66
1
0
VERTEX
8
1
10
2.876526
20
13.617859
42
-0.183963
0
VERTEX
8
1
10
3.260750
20
13.553665
42
-0.084796
0
VERTEX
8
1
10
3.425797
20
13.406937
0
SEQEND
0
LINE
8
1
10
2.939484
20
11.152817
11
2.922661
21
11.051056
0
LINE
8
1
10
2.937248
20
13.814331
11
2.928604
21
13.712860
0
POLYLINE
8
1
66
1
0
VERTEX
8
1
10
2.938171
20
12.546646
42
-0.295807
0
VERTEX
8
1
10
2.981049
20
12.457932
0
VERTEX
8
1
10
2.977264
20
12.431519
0
VERTEX
8
1
10
2.967697
20
12.401016
0
SEQEND
0
POLYLINE
8
1
66
1
0
VERTEX
8
1
10
3.736931
20
11.112152
0
VERTEX
8
1
10
3.644882
20
11.125122
0
VERTEX
8
1
10
3.519058
20
11.013443
0
SEQEND
0
POLYLINE
8
1
66
1
70
1
0
VERTEX
8
1
10
18.178581
20
3.274796
0
VERTEX
8
1
10
18.178581
20
3.959930
0
VERTEX
8
1
10
18.173996
20
3.967789
42
0.078746
0
VERTEX
8
1
10
17.944633
20
4.035355
0
VERTEX
8
1
10
17.886917
20
4.035004
0
VERTEX
8
1
10
17.818039
20
4.032181
42
-0.026827
0
VERTEX
8
1
10
17.427238
20
4.064026
0
VERTEX
8
1
10
17.276527
20
4.201019
0
VERTEX
8
1
10
17.270126
20
4.240463
0
VERTEX
8
1
10
17.253494
20
4.288559
0
VERTEX
8
1
10
17.218925
20
4.345917
0
VERTEX
8
1
10
17.159851
20
4.404800
0
VERTEX
8
1
10
17.069717
20
4.457504
42
-0.009767
0
VERTEX
8
1
10
16.884781
20
4.517990
42
0.014400
0
VERTEX
8
1
10
16.846123
20
4.569321
0
VERTEX
8
1
10
16.849380
20
4.590103
42
0.520500
0
VERTEX
8
1
10
16.805168
20
4.632217
0
VERTEX
8
1
10
16.720345
20
4.646103
0
VERTEX
8
1
10
16.695908
20
4.707001
0
VERTEX
8
1
10
16.696236
20
4.707886
42
-0.106340
0
VERTEX
8
1
10
16.725609
20
4.729355
42
0.092213
0
VERTEX
8
1
10
16.846992
20
4.812851
0
VERTEX
8
1
10
16.875618
20
4.856277
0
VERTEX
8
1
10
16.885277
20
4.906967
0
VERTEX
8
1
10
16.868141
20
4.964569
0
VERTEX
8
1
10
16.821663
20
5.032379
42
0.092840
0
VERTEX
8
1
10
16.650787
20
5.201706
0
VERTEX
8
1
10
16.631783
20
5.226395
42
0.126424
0
VERTEX
8
1
10
16.713799
20
5.433105
42
0.122572
0
VERTEX
8
1
10
16.686714
20
5.800629
0
VERTEX
8
1
10
16.658134
20
5.863602
0
VERTEX
8
1
10
16.623482
20
5.912735
0
VERTEX
8
1
10
16.583893
20
5.945770
42
0.229944
0
VERTEX
8
1
10
16.166473
20
5.953613
42
0.059478
0
VERTEX
8
1
10
16.104904
20
5.911346
0
VERTEX
8
1
10
16.095543
20
5.923523
0
VERTEX
8
1
10
16.033150
20
5.986008
0
VERTEX
8
1
10
16.032188
20
6.002304
0
VERTEX
8
1
10
16.018730
20
6.074478
0
VERTEX
8
1
10
15.970047
20
6.190216
0
VERTEX
8
1
10
15.863594
20
6.333221
0
VERTEX
8
1
10
15.676842
20
6.487259
0
VERTEX
8
1
10
15.387222
20
6.636017
0
VERTEX
8
1
10
14.997025
20
6.757584
0
VERTEX
8
1
10
14.956924
20
6.770935
0
VERTEX
8
1
10
14.919434
20
6.771118
0
VERTEX
8
1
10
14.919373
20
6.817429
0
VERTEX
8
1
10
14.951248
20
6.817413
0
VERTEX
8
1
10
14.951736
20
6.818680
0
VERTEX
8
1
10
14.951736
20
6.891434
0
VERTEX
8
1
10
14.648102
20
6.891495
0
VERTEX
8
1
10
14.636940
20
6.891205
0
VERTEX
8
1
10
14.636940
20
6.818130
0
VERTEX
8
1
10
14.637833
20
6.817413
0
VERTEX
8
1
10
14.673958
20
6.817413
0
VERTEX
8
1
10
14.673958
20
6.772369
0
VERTEX
8
1
10
14.673439
20
6.771103
0
VERTEX
8
1
10
14.609489
20
6.771118
0
VERTEX
8
1
10
14.543320
20
6.810608
0
VERTEX
8
1
10
14.538986
20
6.812790
0
VERTEX
8
1
10
12.946747
20
6.826401
0
VERTEX
8
1
10
12.911240
20
6.838593
42
0.008664
0
VERTEX
8
1
10
12.642395
20
7.719543
0
VERTEX
8
1
10
12.600441
20
7.830399
42
0.064914
0
VERTEX
8
1
10
12.441544
20
8.064011
0
VERTEX
8
1
10
12.321983
20
8.173599
0
VERTEX
8
1
10
12.151878
20
8.287064
0
VERTEX
8
1
10
11.920959
20
8.397003
0
VERTEX
8
1
10
11.635277
20
8.488297
42
0.013080
0
VERTEX
8
1
10
10.651154
20
8.667786
0
VERTEX
8
1
10
10.534843
20
8.681488
0
VERTEX
8
1
10
10.278183
20
8.697617
42
0.019885
0
VERTEX
8
1
10
8.485405
20
8.717331
0
VERTEX
8
1
10
8.059761
20
8.691071
0
VERTEX
8
1
10
7.893349
20
8.667007
0
VERTEX
8
1
10
7.728447
20
8.629791
0
VERTEX
8
1
10
7.557289
20
8.567795
0
VERTEX
8
1
10
7.394424
20
8.471054
0
VERTEX
8
1
10
7.254402
20
8.329544
0
VERTEX
8
1
10
7.151794
20
8.133286
0
VERTEX
8
1
10
7.103989
20
7.891937
42
0.009705
0
VERTEX
8
1
10
7.039322
20
6.573868
0
VERTEX
8
1
10
7.025826
20
6.470184
0
VERTEX
8
1
10
6.650543
20
6.456253
42
0.442921
0
VERTEX
8
1
10
6.626770
20
6.410583
0
VERTEX
8
1
10
6.616417
20
6.405701
0
VERTEX
8
1
10
6.303574
20
6.415314
0
VERTEX
8
1
10
6.340401
20
6.432236
42
0.027876
0
VERTEX
8
1
10
6.259460
20
6.588501
0
VERTEX
8
1
10
6.182472
20
6.543900
42
0.011926
0
VERTEX
8
1
10
6.114510
20
6.641800
0
VERTEX
8
1
10
6.192421
20
6.695557
42
0.029913
0
VERTEX
8
1
10
6.083412
20
6.836136
0
VERTEX
8
1
10
6.009392
20
6.770935
0
VERTEX
8
1
10
6.008133
20
6.770767
42
0.019214
0
VERTEX
8
1
10
5.926613
20
6.855652
0
VERTEX
8
1
10
5.993980
20
6.928131
42
0.039971
0
VERTEX
8
1
10
5.852264
20
7.040894
0
VERTEX
8
1
10
5.796455
20
6.958389
42
0.032518
0
VERTEX
8
1
10
5.694794
20
7.017944
0
VERTEX
8
1
10
5.739227
20
7.107178
42
0.052582
0
VERTEX
8
1
10
5.566475
20
7.173370
0
VERTEX
8
1
10
5.540321
20
7.077225
42
0.040787
0
VERTEX
8
1
10
5.424652
20
7.099136
0
VERTEX
8
1
10
5.435509
20
7.198227
42
0.053139
0
VERTEX
8
1
10
5.249001
20
7.198196
0
VERTEX
8
1
10
5.259514
20
7.099060
42
0.035962
0
VERTEX
8
1
10
5.143585
20
7.078293
0
VERTEX
8
1
10
5.119102
20
7.174927
42
0.050278
0
VERTEX
8
1
10
4.946159
20
7.113571
0
VERTEX
8
1
10
4.987663
20
7.022949
42
0.028384
0
VERTEX
8
1
10
4.883545
20
6.967438
0
VERTEX
8
1
10
4.831688
20
7.052292
0
VERTEX
8
1
10
4.831139
20
7.052246
42
0.039288
0
VERTEX
8
1
10
4.684891
20
6.947906
0
VERTEX
8
1
10
4.748375
20
6.871063
0
VERTEX
8
1
10
4.699974
20
6.828934
0
VERTEX
8
1
10
4.660683
20
6.791687
0
VERTEX
8
1
10
4.590378
20
6.862366
42
0.030716
0
VERTEX
8
1
10
4.472221
20
6.729935
0
VERTEX
8
1
10
4.548813
20
6.668503
0
VERTEX
8
1
10
4.549362
20
6.667252
42
0.009745
0
VERTEX
8
1
10
4.478600
20
6.572922
0
VERTEX
8
1
10
4.397552
20
6.628647
0
VERTEX
8
1
10
4.396217
20
6.628006
42
0.024665
0
VERTEX
8
1
10
4.304268
20
6.479477
0
VERTEX
8
1
10
4.309532
20
6.476532
0
VERTEX
8
1
10
1.981308
20
6.547714
0
VERTEX
8
1
10
1.940842
20
6.547989
42
0.219228
0
VERTEX
8
1
10
1.891884
20
6.485306
0
VERTEX
8
1
10
1.897789
20
6.458191
0
VERTEX
8
1
10
1.923218
20
6.428207
42
0.020126
0
VERTEX
8
1
10
2.016975
20
6.417206
0
VERTEX
8
1
10
2.018906
20
6.412262
0
VERTEX
8
1
10
2.034317
20
5.087341
0
VERTEX
8
1
10
2.031822
20
5.073563
42
0.072484
0
VERTEX
8
1
10
1.943298
20
5.076797
0
VERTEX
8
1
10
1.925537
20
5.076752
42
0.319626
0
VERTEX
8
1
10
1.776711
20
4.995651
42
0.384582
0
VERTEX
8
1
10
1.835907
20
4.754501
0
VERTEX
8
1
10
1.868462
20
4.740829
0
VERTEX
8
1
10
1.901939
20
4.736404
0
VERTEX
8
1
10
2.001701
20
4.736404
42
0.070254
0
VERTEX
8
1
10
2.037315
20
4.741013
0
VERTEX
8
1
10
2.038406
20
4.736755
0
VERTEX
8
1
10
2.039551
20
4.625290
0
VERTEX
8
1
10
1.957588
20
4.625290
0
VERTEX
8
1
10
1.956352
20
4.624313
0
VERTEX
8
1
10
1.956360
20
4.569778
0
VERTEX
8
1
10
1.829018
20
4.569733
0
VERTEX
8
1
10
1.824417
20
4.568008
0
VERTEX
8
1
10
1.824417
20
4.177612
0
VERTEX
8
1
10
1.826477
20
4.173569
0
VERTEX
8
1
10
1.907745
20
4.160004
0
VERTEX
8
1
10
2.407990
20
4.160004
0
VERTEX
8
1
10
2.421646
20
4.159195
42
0.173718
0
VERTEX
8
1
10
2.454506
20
4.068588
0
VERTEX
8
1
10
2.476570
20
4.057190
42
0.036093
0
VERTEX
8
1
10
2.567780
20
4.052704
42
0.015254
0
VERTEX
8
1
10
2.543716
20
3.896759
0
VERTEX
8
1
10
2.642639
20
3.884521
0
VERTEX
8
1
10
2.636520
20
3.828537
0
VERTEX
8
1
10
2.631302
20
3.762558
0
VERTEX
8
1
10
2.531853
20
3.769272
42
0.018290
0
VERTEX
8
1
10
2.525894
20
3.590790
0
VERTEX
8
1
10
2.625267
20
3.590378
42
0.015129
0
VERTEX
8
1
10
2.628624
20
3.467957
0
VERTEX
8
1
10
2.529121
20
3.462494
42
0.019849
0
VERTEX
8
1
10
2.545769
20
3.283585
0
VERTEX
8
1
10
2.644562
20
3.296661
42
0.013030
0
VERTEX
8
1
10
2.663818
20
3.175644
0
VERTEX
8
1
10
2.565887
20
3.157013
42
0.018035
0
VERTEX
8
1
10
2.606461
20
2.981934
0
VERTEX
8
1
10
2.702606
20
3.007996
42
0.012033
0
VERTEX
8
1
10
2.738136
20
2.890945
0
VERTEX
8
1
10
2.735794
20
2.889877
0
VERTEX
8
1
10
2.643723
20
2.858963
42
0.020100
0
VERTEX
8
1
10
2.708015
20
2.690552
0
VERTEX
8
1
10
2.799568
20
2.729950
42
0.014690
0
VERTEX
8
1
10
2.851669
20
2.619110
0
VERTEX
8
1
10
2.762802
20
2.573944
42
0.024573
0
VERTEX
8
1
10
2.852119
20
2.416290
0
VERTEX
8
1
10
2.936249
20
2.469482
0
VERTEX
8
1
10
2.971771
20
2.415817
0
VERTEX
8
1
10
3.005409
20
2.368820
0
VERTEX
8
1
10
3.003822
20
2.367233
0
VERTEX
8
1
10
2.925537
20
2.309189
42
0.036295
0
VERTEX
8
1
10
3.043739
20
2.169327
0
VERTEX
8
1
10
3.115334
20
2.236526
0
VERTEX
8
1
10
3.115776
20
2.236511
42
0.016921
0
VERTEX
8
1
10
3.202873
20
2.151123
0
VERTEX
8
1
10
3.137817
20
2.077438
0
VERTEX
8
1
10
3.137413
20
2.076523
42
0.036356
0
VERTEX
8
1
10
3.285515
20
1.963852
0
VERTEX
8
1
10
3.339584
20
2.047577
42
0.026933
0
VERTEX
8
1
10
3.445930
20
1.988129
0
VERTEX
8
1
10
3.402969
20
1.898193
42
0.049964
0
VERTEX
8
1
10
3.582405
20
1.833710
0
VERTEX
8
1
10
3.606552
20
1.930130
42
0.035385
0
VERTEX
8
1
10
3.726280
20
1.909744
0
VERTEX
8
1
10
3.717751
20
1.810425
42
0.054136
0
VERTEX
8
1
10
3.908974
20
1.814117
0
VERTEX
8
1
10
3.897072
20
1.913071
42
0.049377
0
VERTEX
8
1
10
4.016663
20
1.936188
0
VERTEX
8
1
10
4.042511
20
1.839905
42
0.048974
0
VERTEX
8
1
10
4.219933
20
1.906082
0
VERTEX
8
1
10
4.176804
20
1.995941
42
0.032757
0
VERTEX
8
1
10
4.283218
20
2.055511
0
VERTEX
8
1
10
4.337135
20
1.971664
42
0.040448
0
VERTEX
8
1
10
4.485535
20
2.084488
0
VERTEX
8
1
10
4.419540
20
2.159195
42
0.019039
0
VERTEX
8
1
10
4.507126
20
2.243942
0
VERTEX
8
1
10
4.510635
20
2.241226
0
VERTEX
8
1
10
4.579987
20
2.176849
42
0.030531
0
VERTEX
8
1
10
4.696426
20
2.319046
0
VERTEX
8
1
10
4.625175
20
2.370499
0
VERTEX
8
1
10
4.621262
20
2.374146
42
0.013320
0
VERTEX
8
1
10
4.692795
20
2.473648
0
VERTEX
8
1
10
4.768578
20
2.427917
42
0.025172
0
VERTEX
8
1
10
4.854172
20
2.588333
0
VERTEX
8
1
10
4.778145
20
2.624374
42
0.013391
0
VERTEX
8
1
10
4.830559
20
2.736450
0
VERTEX
8
1
10
4.905052
20
2.707352
0
VERTEX
8
1
10
4.905655
20
2.707520
42
0.022195
0
VERTEX
8
1
10
4.963272
20
2.878632
0
VERTEX
8
1
10
4.890892
20
2.899582
42
0.000307
0
VERTEX
8
1
10
4.922768
20
3.017273
0
VERTEX
8
1
10
4.926804
20
3.018616
0
VERTEX
8
1
10
4.995537
20
3.003296
42
0.020921
0
VERTEX
8
1
10
5.027229
20
3.180664
0
VERTEX
8
1
10
4.961433
20
3.189758
0
VERTEX
8
1
10
4.957870
20
3.190903
0
VERTEX
8
1
10
4.965179
20
3.240723
0
VERTEX
8
1
10
4.976189
20
3.238617
42
0.147625
0
VERTEX
8
1
10
5.341209
20
3.145370
0
VERTEX
8
1
10
5.439583
20
3.153214
0
VERTEX
8
1
10
5.507278
20
3.166901
42
0.200934
0
VERTEX
8
1
10
5.588882
20
3.226456
0
VERTEX
8
1
10
5.606987
20
3.247757
0
VERTEX
8
1
10
5.637138
20
3.264679
42
-0.023960
0
VERTEX
8
1
10
5.864029
20
3.264267
0
VERTEX
8
1
10
5.866089
20
3.266769
0
VERTEX
8
1
10
5.866081
20
3.402969
0
VERTEX
8
1
10
6.456581
20
3.403061
0
VERTEX
8
1
10
6.477127
20
3.402222
42
0.097419
0
VERTEX
8
1
10
6.493240
20
3.276215
0
VERTEX
8
1
10
6.513527
20
3.241516
0
VERTEX
8
1
10
6.545456
20
3.219254
0
VERTEX
8
1
10
6.566101
20
3.214966
42
0.010792
0
VERTEX
8
1
10
6.733864
20
3.210129
0
VERTEX
8
1
10
6.680771
20
3.192215
42
0.019005
0
VERTEX
8
1
10
6.744987
20
3.024002
0
VERTEX
8
1
10
6.835403
20
3.062851
0
VERTEX
8
1
10
6.836823
20
3.062759
42
0.011280
0
VERTEX
8
1
10
6.888206
20
2.952179
0
VERTEX
8
1
10
6.799866
20
2.907227
42
0.024483
0
VERTEX
8
1
10
6.889168
20
2.749588
0
VERTEX
8
1
10
6.973450
20
2.802795
0
VERTEX
8
1
10
7.003807
20
2.756546
0
VERTEX
8
1
10
7.042648
20
2.701874
0
VERTEX
8
1
10
6.962616
20
2.642456
42
0.028792
0
VERTEX
8
1
10
7.079880
20
2.501892
0
VERTEX
8
1
10
7.152603
20
2.570053
42
0.021844
0
VERTEX
8
1
10
7.240128
20
2.484818
0
VERTEX
8
1
10
7.174217
20
2.410049
42
0.036218
0
VERTEX
8
1
10
7.322662
20
2.297318
0
VERTEX
8
1
10
7.376495
20
2.380997
42
0.027732
0
VERTEX
8
1
10
7.482765
20
2.321564
0
VERTEX
8
1
10
7.440056
20
2.231491
42
0.050408
0
VERTEX
8
1
10
7.619202
20
2.166809
0
VERTEX
8
1
10
7.643517
20
2.263397
42
0.037625
0
VERTEX
8
1
10
7.763451
20
2.243057
0
VERTEX
8
1
10
7.754684
20
2.143768
42
0.054589
0
VERTEX
8
1
10
7.946114
20
2.147461
0
VERTEX
8
1
10
7.934120
20
2.246414
42
0.033465
0
VERTEX
8
1
10
8.053734
20
2.269424
0
VERTEX
8
1
10
8.079697
20
2.173279
42
0.048083
0
VERTEX
8
1
10
8.257057
20
2.239456
0
VERTEX
8
1
10
8.213837
20
2.329300
42
0.028839
0
VERTEX
8
1
10
8.320343
20
2.388763
0
VERTEX
8
1
10
8.374313
20
2.305084
42
0.040478
0
VERTEX
8
1
10
8.522629
20
2.417877
0
VERTEX
8
1
10
8.456627
20
2.492569
42
0.024768
0
VERTEX
8
1
10
8.543938
20
2.577988
0
VERTEX
8
1
10
8.616997
20
2.510193
42
0.031935
0
VERTEX
8
1
10
8.733437
20
2.652344
0
VERTEX
8
1
10
8.652634
20
2.710724
0
VERTEX
8
1
10
8.690094
20
2.765182
0
VERTEX
8
1
10
8.720161
20
2.812653
0
VERTEX
8
1
10
8.805542
20
2.761154
42
0.025598
0
VERTEX
8
1
10
8.891243
20
2.921768
0
VERTEX
8
1
10
8.801132
20
2.964371
42
0.015270
0
VERTEX
8
1
10
8.849678
20
3.076752
0
VERTEX
8
1
10
8.942551
20
3.040512
42
0.019144
0
VERTEX
8
1
10
8.994743
20
3.192322
0
VERTEX
8
1
10
9.022324
20
3.191360
0
VERTEX
8
1
10
9.213264
20
3.180847
0
VERTEX
8
1
10
9.206581
20
3.335556
0
VERTEX
8
1
10
9.208214
20
3.340561
0
VERTEX
8
1
10
9.521439
20
3.340561
0
VERTEX
8
1
10
9.523293
20
3.338058
42
0.015602
0
VERTEX
8
1
10
9.496498
20
3.193680
0
VERTEX
8
1
10
9.594910
20
3.178711
42
0.015890
0
VERTEX
8
1
10
9.574745
20
3.010773
0
VERTEX
8
1
10
9.475464
20
3.019363
42
0.025698
0
VERTEX
8
1
10
9.465500
20
2.774124
0
VERTEX
8
1
10
9.563377
20
2.773514
42
0.014155
0
VERTEX
8
1
10
9.567604
20
2.604324
0
VERTEX
8
1
10
9.469444
20
2.598358
0
VERTEX
8
1
10
9.468895
20
2.597809
42
0.041129
0
VERTEX
8
1
10
9.497963
20
2.353256
0
VERTEX
8
1
10
9.594559
20
2.368484
42
0.010544
0
VERTEX
8
1
10
9.626411
20
2.202255
0
VERTEX
8
1
10
9.530556
20
2.180450
0
VERTEX
8
1
10
9.530182
20
2.179825
42
0.025514
0
VERTEX
8
1
10
9.597420
20
1.943024
0
VERTEX
8
1
10
9.692017
20
1.973938
42
0.016243
0
VERTEX
8
1
10
9.751366
20
1.815262
0
VERTEX
8
1
10
9.659210
20
1.777740
42
0.025278
0
VERTEX
8
1
10
9.765114
20
1.554413
0
VERTEX
8
1
10
9.851944
20
1.599777
0
VERTEX
8
1
10
9.853424
20
1.599533
42
0.017076
0
VERTEX
8
1
10
9.938110
20
1.453674
0
VERTEX
8
1
10
9.853546
20
1.401443
42
0.025979
0
VERTEX
8
1
10
9.996681
20
1.198395
0
VERTEX
8
1
10
10.075310
20
1.258987
42
0.022679
0
VERTEX
8
1
10
10.185616
20
1.130005
0
VERTEX
8
1
10
10.112175
20
1.063370
42
0.027713
0
VERTEX
8
1
10
10.292320
20
0.889694
0
VERTEX
8
1
10
10.357277
20
0.964478
0
VERTEX
8
1
10
10.425972
20
0.908936
0
VERTEX
8
1
10
10.491928
20
0.860519
0
VERTEX
8
1
10
10.434349
20
0.780060
42
0.036922
0
VERTEX
8
1
10
10.651314
20
0.650375
0
VERTEX
8
1
10
10.696190
20
0.736923
0
VERTEX
8
1
10
10.696854
20
0.737595
42
0.026468
0
VERTEX
8
1
10
10.852356
20
0.668930
0
VERTEX
8
1
10
10.817650
20
0.578568
0
VERTEX
8
1
10
10.817184
20
0.576736
42
0.042497
0
VERTEX
8
1
10
11.062553
20
0.506256
0
VERTEX
8
1
10
11.081512
20
0.600647
0
VERTEX
8
1
10
11.082390
20
0.602905
42
0.030125
0
VERTEX
8
1
10
11.250954
20
0.580429
0
VERTEX
8
1
10
11.243965
20
0.482132
42
0.046658
0
VERTEX
8
1
10
11.499359
20
0.487320
0
VERTEX
8
1
10
11.490082
20
0.584061
0
VERTEX
8
1
10
11.490494
20
0.584412
42
0.031038
0
VERTEX
8
1
10
11.658737
20
0.609375
0
VERTEX
8
1
10
11.678986
20
0.514175
0
VERTEX
8
1
10
11.679588
20
0.513336
42
0.040491
0
VERTEX
8
1
10
11.923538
20
0.584045
0
VERTEX
8
1
10
11.888290
20
0.676071
0
VERTEX
8
1
10
11.888657
20
0.676453
42
0.030389
0
VERTEX
8
1
10
12.044250
20
0.744537
0
VERTEX
8
1
10
12.089432
20
0.656616
42
0.039259
0
VERTEX
8
1
10
12.306480
20
0.786407
0
VERTEX
8
1
10
12.249931
20
0.865906
0
VERTEX
8
1
10
12.249512
20
0.866913
42
0.038110
0
VERTEX
8
1
10
12.383942
20
0.970688
0
VERTEX
8
1
10
12.448898
20
0.895935
42
0.034245
0
VERTEX
8
1
10
12.628807
20
1.070770
0
VERTEX
8
1
10
12.555756
20
1.135864
0
VERTEX
8
1
10
12.555260
20
1.136673
42
0.020823
0
VERTEX
8
1
10
12.663757
20
1.266617
0
VERTEX
8
1
10
12.743256
20
1.207474
42
0.033269
0
VERTEX
8
1
10
12.882835
20
1.414078
0
VERTEX
8
1
10
12.799561
20
1.462463
0
VERTEX
8
1
10
12.802879
20
1.472107
42
0.018191
0
VERTEX
8
1
10
12.879784
20
1.605148
0
VERTEX
8
1
10
12.885750
20
1.609161
0
VERTEX
8
1
10
12.967049
20
1.570129
42
0.026015
0
VERTEX
8
1
10
13.064568
20
1.798355
0
VERTEX
8
1
10
12.984840
20
1.826660
0
VERTEX
8
1
10
12.985550
20
1.835281
42
0.016986
0
VERTEX
8
1
10
13.037033
20
1.980713
0
VERTEX
8
1
10
13.041809
20
1.987595
0
VERTEX
8
1
10
13.118126
20
1.966675
42
0.025886
0
VERTEX
8
1
10
13.172714
20
2.207855
0
VERTEX
8
1
10
13.099709
20
2.220306
0
VERTEX
8
1
10
13.100273
20
2.226425
0
VERTEX
8
1
10
13.111244
20
2.284195
42
0.043500
0
VERTEX
8
1
10
13.517502
20
2.771912
0
VERTEX
8
1
10
13.614136
20
2.784958
0
VERTEX
8
1
10
13.619102
20
2.783539
42
0.028296
0
VERTEX
8
1
10
13.682411
20
2.572220
0
VERTEX
8
1
10
13.777046
20
2.601822
42
0.017026
0
VERTEX
8
1
10
13.836380
20
2.449890
0
VERTEX
8
1
10
13.744209
20
2.413940
42
0.026158
0
VERTEX
8
1
10
13.850189
20
2.200119
0
VERTEX
8
1
10
13.937073
20
2.243607
0
VERTEX
8
1
10
13.938461
20
2.243225
42
0.017284
0
VERTEX
8
1
10
14.023109
20
2.103638
0
VERTEX
8
1
10
13.938560
20
2.053650
42
0.029323
0
VERTEX
8
1
10
14.081673
20
1.859222
0
VERTEX
8
1
10
14.160316
20
1.917221
42
0.022679
0
VERTEX
8
1
10
14.270622
20
1.793686
0
VERTEX
8
1
10
14.197174
20
1.729904
42
0.027607
0
VERTEX
8
1
10
14.377312
20
1.563599
0
VERTEX
8
1
10
14.442276
20
1.635193
0
VERTEX
8
1
10
14.511444
20
1.581680
0
VERTEX
8
1
10
14.576874
20
1.535614
0
VERTEX
8
1
10
14.519356
20
1.458618
42
0.037467
0
VERTEX
8
1
10
14.736450
20
1.334702
0
VERTEX
8
1
10
14.781326
20
1.417603
0
VERTEX
8
1
10
14.781914
20
1.417953
42
0.025117
0
VERTEX
8
1
10
14.937317
20
1.352127
0
VERTEX
8
1
10
14.902481
20
1.265244
0
VERTEX
8
1
10
14.902275
20
1.263901
42
0.039519
0
VERTEX
8
1
10
15.147346
20
1.196487
0
VERTEX
8
1
10
15.166634
20
1.287399
0
VERTEX
8
1
10
15.167603
20
1.289001
42
0.028816
0
VERTEX
8
1
10
15.335938
20
1.267319
0
VERTEX
8
1
10
15.328972
20
1.173370
42
0.044375
0
VERTEX
8
1
10
15.584328
20
1.178802
0
VERTEX
8
1
10
15.575043
20
1.271149
42
0.025643
0
VERTEX
8
1
10
15.743820
20
1.294876
0
VERTEX
8
1
10
15.764076
20
1.203705
0
VERTEX
8
1
10
15.764717
20
1.203278
42
0.038942
0
VERTEX
8
1
10
16.008568
20
1.270966
0
VERTEX
8
1
10
15.973244
20
1.359207
42
0.022758
0
VERTEX
8
1
10
16.129257
20
1.424637
0
VERTEX
8
1
10
16.174431
20
1.340424
42
0.040328
0
VERTEX
8
1
10
16.391304
20
1.464951
0
VERTEX
8
1
10
16.334709
20
1.541153
0
VERTEX
8
1
10
16.334595
20
1.541855
42
0.036627
0
VERTEX
8
1
10
16.468994
20
1.641083
0
VERTEX
8
1
10
16.533928
20
1.569611
42
0.034582
0
VERTEX
8
1
10
16.713623
20
1.737137
0
VERTEX
8
1
10
16.650269
20
1.791229
42
0.021837
0
VERTEX
8
1
10
16.765465
20
1.912796
0
VERTEX
8
1
10
16.828545
20
1.867920
42
0.028799
0
VERTEX
8
1
10
16.967804
20
2.065613
0
VERTEX
8
1
10
16.907730
20
2.099197
0
VERTEX
8
1
10
16.904045
20
2.101578
42
0.023724
0
VERTEX
8
1
10
16.984367
20
2.246246
0
VERTEX
8
1
10
17.051765
20
2.215286
0
VERTEX
8
1
10
17.052322
20
2.215652
42
0.033352
0
VERTEX
8
1
10
17.149513
20
2.433517
0
VERTEX
8
1
10
17.066986
20
2.461777
42
0.015139
0
VERTEX
8
1
10
17.107056
20
2.620026
0
VERTEX
8
1
10
17.203133
20
2.594894
42
0.027219
0
VERTEX
8
1
10
17.257713
20
2.825806
0
VERTEX
8
1
10
17.160416
20
2.841629
0
VERTEX
8
1
10
17.159607
20
2.842789
0
VERTEX
8
1
10
17.173584
20
2.930771
0
VERTEX
8
1
10
17.181854
20
3.002335
0
VERTEX
8
1
10
17.281067
20
2.993210
42
0.017935
0
VERTEX
8
1
10
17.291885
20
3.148880
0
VERTEX
8
1
10
17.299171
20
3.151718
0
VERTEX
8
1
10
17.664505
20
3.160004
0
VERTEX
8
1
10
18.161827
20
3.267502
0
SEQEND
0
POLYLINE
8
1
66
1
70
1
0
VERTEX
8
1
10
16.764198
20
4.446289
42
-0.867189
0
VERTEX
8
1
10
16.781532
20
4.487320
42
-0.040568
0
VERTEX
8
1
10
17.029037
20
4.365524
42
-0.145059
0
VERTEX
8
1
10
17.078278
20
4.316071
42
-0.476267
0
VERTEX
8
1
10
17.042877
20
4.276627
42
-0.016533
0
VERTEX
8
1
10
16.940849
20
4.267899
42
0.051176
0
VERTEX
8
1
10
17.189491
20
4.193588
42
-0.833831
0
VERTEX
8
1
10
17.175331
20
4.151627
42
-0.052726
0
VERTEX
8
1
10
16.919182
20
4.227997
0
VERTEX
8
1
10
16.899773
20
4.240311
42
-0.467574
0
VERTEX
8
1
10
16.883034
20
4.298355
0
VERTEX
8
1
10
16.890297
20
4.303513
42
-0.056506
0
VERTEX
8
1
10
17.013069
20
4.318298
0
VERTEX
8
1
10
17.012733
20
4.322937
42
0.036384
0
SEQEND
0
POLYLINE
8
1
66
1
70
1
0
VERTEX
8
1
10
16.408104
20
4.805206
42
-1.032742
0
VERTEX
8
1
10
16.366158
20
4.822113
42
-0.317585
0
VERTEX
8
1
10
16.475151
20
4.923065
0
VERTEX
8
1
10
16.488953
20
4.922638
42
-0.237876
0
VERTEX
8
1
10
16.659119
20
4.797943
42
-0.917838
0
VERTEX
8
1
10
16.615135
20
4.787140
42
0.223763
0
VERTEX
8
1
10
16.476875
20
4.878098
0
VERTEX
8
1
10
16.469261
20
4.877289
42
0.276753
0
SEQEND
0
POLYLINE
8
1
66
1
70
1
0
VERTEX
8
1
10
16.246490
20
4.751114
42
-0.065116
0
VERTEX
8
1
10
16.261917
20
4.785004
0
VERTEX
8
1
10
16.470261
20
4.715485
42
0.249935
0
VERTEX
8
1
10
16.540207
20
4.649490
42
-0.133202
0
VERTEX
8
1
10
16.650581
20
4.604660
0
VERTEX
8
1
10
16.649971
20
4.603409
0
VERTEX
8
1
10
16.540062
20
4.466034
0
VERTEX
8
1
10
16.537117
20
4.467209
42
-0.017001
0
VERTEX
8
1
10
16.279442
20
4.643234
42
-0.344078
0
SEQEND
0
POLYLINE
8
1
66
1
70
1
0
VERTEX
8
1
10
16.510483
20
5.028809
42
-0.216184
0
VERTEX
8
1
10
16.464706
20
5.022415
0
VERTEX
8
1
10
16.439613
20
5.026871
42
-0.048792
0
VERTEX
8
1
10
16.177483
20
5.129333
42
-0.783095
0
VERTEX
8
1
10
16.197945
20
5.167953
42
0.042817
0
VERTEX
8
1
10
16.468552
20
5.066330
0
VERTEX
8
1
10
16.483307
20
5.068695
42
0.076540
0
VERTEX
8
1
10
16.500031
20
5.123611
42
-0.918856
0
VERTEX
8
1
10
16.540359
20
5.099838
42
-0.129246
0
SEQEND
0
POLYLINE
8
1
66
1
70
1
0
VERTEX
8
1
10
16.376328
20
5.506607
42
-0.127186
0
VERTEX
8
1
10
16.419846
20
5.815125
42
-0.190532
0
VERTEX
8
1
10
16.483444
20
5.880173
42
-0.321833
0
VERTEX
8
1
10
16.553001
20
5.851166
0
VERTEX
8
1
10
16.565033
20
5.834656
0
VERTEX
8
1
10
16.576210
20
5.815109
0
VERTEX
8
1
10
16.586418
20
5.792740
42
-0.169535
0
VERTEX
8
1
10
16.586411
20
5.360611
42
-0.217844
0
VERTEX
8
1
10
16.512604
20
5.273178
42
-0.321696
0
VERTEX
8
1
10
16.443054
20
5.302170
42
-0.138409
0
SEQEND
0
POLYLINE
8
1
66
1
70
1
0
VERTEX
8
1
10
16.095245
20
5.840561
42
-0.152767
0
VERTEX
8
1
10
16.349304
20
5.913803
0
VERTEX
8
1
10
16.373024
20
5.910004
42
0.105522
0
VERTEX
8
1
10
16.311073
20
5.476746
42
0.162508
0
VERTEX
8
1
10
16.428581
20
5.201675
42
-0.151041
0
VERTEX
8
1
10
16.233223
20
5.256821
42
-0.045516
0
VERTEX
8
1
10
16.109138
20
5.340561
0
SEQEND
0
POLYLINE
8
1
66
1
70
1
0
VERTEX
8
1
10
16.328697
20
5.624252
0
VERTEX
8
1
10
16.338112
20
5.623672
0
VERTEX
8
1
10
16.337425
20
5.612930
0
VERTEX
8
1
10
16.336723
20
5.609970
0
VERTEX
8
1
10
16.326073
20
5.623810
0
SEQEND
0
POLYLINE
8
1
66
1
70
1
0
VERTEX
8
1
10
16.031090
20
4.853745
0
VERTEX
8
1
10
16.031075
20
5.238708
42
-0.939601
0
VERTEX
8
1
10
16.075912
20
5.241470
0
VERTEX
8
1
10
16.075989
20
4.852356
42
-0.938983
0
SEQEND
0
POLYLINE
8
1
66
1
70
1
0
VERTEX
8
1
10
16.041100
20
4.697037
42
0.082704
0
VERTEX
8
1
10
16.128441
20
4.651154
0
VERTEX
8
1
10
16.146606
20
4.638443
42
-0.118048
0
VERTEX
8
1
10
16.247124
20
4.479370
42
-0.055420
0
VERTEX
8
1
10
15.857674
20
4.483246
0
VERTEX
8
1
10
15.823555
20
4.491409
0
VERTEX
8
1
10
15.813377
20
4.529129
42
0.197949
0
VERTEX
8
1
10
15.664787
20
4.778046
42
0.007808
0
VERTEX
8
1
10
15.956070
20
4.736786
42
-0.120849
0
SEQEND
0
POLYLINE
8
1
66
1
70
1
0
VERTEX
8
1
10
13.351303
20
4.704758
42
-0.083605
0
VERTEX
8
1
10
13.020020
20
4.735580
0
VERTEX
8
1
10
12.958359
20
4.750153
42
-0.026950
0
VERTEX
8
1
10
11.349792
20
5.245743
0
VERTEX
8
1
10
11.262146
20
5.280731
0
VERTEX
8
1
10
11.183403
20
5.314240
42
0.195883
0
VERTEX
8
1
10
10.212669
20
5.333313
0
VERTEX
8
1
10
10.209953
20
5.340225
0
VERTEX
8
1
10
10.224541
20
5.383194
0
VERTEX
8
1
10
10.267761
20
5.419342
0
VERTEX
8
1
10
10.336693
20
5.449127
0
VERTEX
8
1
10
10.428459
20
5.473007
42
-0.041948
0
VERTEX
8
1
10
10.965881
20
5.519714
0
VERTEX
8
1
10
11.128357
20
5.521637
42
-0.015023
0
VERTEX
8
1
10
12.575279
20
5.461304
0
VERTEX
8
1
10
12.638489
20
5.458130
0
VERTEX
8
1
10
12.676094
20
5.457306
42
-0.180773
0
VERTEX
8
1
10
12.807404
20
5.416946
42
-0.265779
0
VERTEX
8
1
10
12.835625
20
5.311386
0
VERTEX
8
1
10
13.280319
20
5.015121
42
0.351138
0
VERTEX
8
1
10
13.502037
20
5.040726
0
VERTEX
8
1
10
13.482414
20
5.099564
0
VERTEX
8
1
10
13.488167
20
5.105026
42
0.128061
0
VERTEX
8
1
10
13.707336
20
5.225235
42
-0.065892
0
VERTEX
8
1
10
14.215324
20
5.003006
42
-0.142567
0
VERTEX
8
1
10
14.358185
20
4.855957
42
-0.367783
0
VERTEX
8
1
10
14.314613
20
4.728302
0
VERTEX
8
1
10
14.111130
20
4.789246
42
0.099251
0
VERTEX
8
1
10
13.967033
20
4.879013
42
0.394184
0
VERTEX
8
1
10
13.856712
20
4.825928
42
0.085683
0
VERTEX
8
1
10
13.835342
20
4.749084
42
-0.021623
0
SEQEND
0
POLYLINE
8
1
66
1
70
1
0
VERTEX
8
1
10
13.785042
20
4.372330
42
-0.668350
0
VERTEX
8
1
10
13.800987
20
4.333923
42
0.095875
0
VERTEX
8
1
10
13.707329
20
4.194031
42
-0.748424
0
VERTEX
8
1
10
13.670837
20
4.217117
42
-0.122470
0
VERTEX
8
1
10
13.776436
20
4.370621
0
VERTEX
8
1
10
13.780655
20
4.371902
0
SEQEND
0
POLYLINE
8
1
66
1
70
1
0
VERTEX
8
1
10
12.666679
20
4.299591
42
-1.028930
0
VERTEX
8
1
10
12.664055
20
4.344528
0
VERTEX
8
1
10
12.990227
20
4.353790
42
-0.981328
0
VERTEX
8
1
10
12.988045
20
4.308762
0
SEQEND
0
POLYLINE
8
1
66
1
70
1
0
VERTEX
8
1
10
12.873055
20
4.554169
0
VERTEX
8
1
10
12.384987
20
4.595901
42
-0.999829
0
VERTEX
8
1
10
12.388840
20
4.640762
0
VERTEX
8
1
10
12.874954
20
4.599106
42
-0.957035
0
SEQEND
0
POLYLINE
8
1
66
1
70
1
0
VERTEX
8
1
10
11.215973
20
5.182129
42
-0.950456
0
VERTEX
8
1
10
11.226715
20
5.138458
42
0.185697
0
VERTEX
8
1
10
10.848000
20
4.853149
42
-1.032125
0
VERTEX
8
1
10
10.815643
20
4.886261
42
-0.169270
0
VERTEX
8
1
10
11.175598
20
5.169022
0
SEQEND
0
POLYLINE
8
1
66
1
70
1
0
VERTEX
8
1
10
10.346962
20
6.116562
0
VERTEX
8
1
10
10.150208
20
6.121048
42
-0.988617
0
VERTEX
8
1
10
10.150734
20
6.166031
0
VERTEX
8
1
10
10.341949
20
6.161591
42
-1.034682
0
SEQEND
0
POLYLINE
8
1
66
1
70
1
0
VERTEX
8
1
10
10.498634
20
5.874008
42
0.001191
0
VERTEX
8
1
10
10.519989
20
5.571793
42
-0.807838
0
VERTEX
8
1
10
10.475990
20
5.572113
42
-0.018494
0
VERTEX
8
1
10
10.448830
20
6.034439
42
-0.201053
0
VERTEX
8
1
10
10.497040
20
6.149200
42
-1.155983
0
VERTEX
8
1
10
10.520432
20
6.109482
42
0.178908
0
VERTEX
8
1
10
10.492989
20
6.019272
42
0.023291
0
SEQEND
0
POLYLINE
8
1
66
1
70
1
0
VERTEX
8
1
10
13.400627
20
6.062622
42
0.182407
0
VERTEX
8
1
10
13.200584
20
5.618286
42
0.133872
0
VERTEX
8
1
10
13.277145
20
5.310501
0
VERTEX
8
1
10
13.317467
20
5.243347
0
VERTEX
8
1
10
13.301224
20
5.238647
42
0.577738
0
VERTEX
8
1
10
13.281120
20
5.192688
42
0.114345
0
VERTEX
8
1
10
13.367882
20
5.116089
0
VERTEX
8
1
10
13.386826
20
5.104492
42
-0.075560
0
VERTEX
8
1
10
12.979057
20
5.340179
42
-0.128212
0
VERTEX
8
1
10
12.838860
20
5.527084
0
VERTEX
8
1
10
12.829468
20
5.568405
0
VERTEX
8
1
10
12.828445
20
5.610733
42
-0.209172
0
VERTEX
8
1
10
13.053368
20
5.953033
42
-0.137417
0
VERTEX
8
1
10
13.353851
20
6.065674
0
VERTEX
8
1
10
13.381561
20
6.065079
0
SEQEND
0
POLYLINE
8
1
66
1
70
1
0
VERTEX
8
1
10
13.500015
20
5.979446
42
-0.224262
0
VERTEX
8
1
10
13.616058
20
5.917160
42
-0.165338
0
VERTEX
8
1
10
13.710274
20
5.613388
42
-0.160517
0
VERTEX
8
1
10
13.624237
20
5.300674
0
VERTEX
8
1
10
13.607613
20
5.281006
42
-0.388621
0
VERTEX
8
1
10
13.428749
20
5.250336
42
-0.176142
0
VERTEX
8
1
10
13.312057
20
5.435196
42
-0.185751
0
VERTEX
8
1
10
13.353073
20
5.872559
42
-0.213701
0
VERTEX
8
1
10
13.478836
20
5.977570
0
SEQEND
0
POLYLINE
8
1
66
1
70
1
0
VERTEX
8
1
10
12.529129
20
5.734711
42
-1.032973
0
VERTEX
8
1
10
12.527596
20
5.779739
0
VERTEX
8
1
10
12.818253
20
5.779724
42
-0.932485
0
VERTEX
8
1
10
12.819817
20
5.734848
0
SEQEND
0
POLYLINE
8
1
66
1
70
1
0
VERTEX
8
1
10
12.512306
20
5.901382
42
-1.017998
0
VERTEX
8
1
10
12.512314
20
5.946396
0
VERTEX
8
1
10
12.803391
20
5.946350
42
-0.932033
0
VERTEX
8
1
10
12.803391
20
5.901459
0
SEQEND
0
POLYLINE
8
1
66
1
70
1
0
VERTEX
8
1
10
13.025284
20
6.099197
42
-0.972141
0
VERTEX
8
1
10
13.028275
20
6.054245
0
VERTEX
8
1
10
10.705261
20
6.108139
42
-0.953647
0
VERTEX
8
1
10
10.705269
20
6.153091
0
SEQEND
0
POLYLINE
8
1
66
1
70
1
0
VERTEX
8
1
10
11.748024
20
5.748611
42
-0.999661
0
VERTEX
8
1
10
11.748024
20
5.793625
0
VERTEX
8
1
10
12.261917
20
5.793625
42
-0.999661
0
VERTEX
8
1
10
12.261917
20
5.748611
0
SEQEND
0
POLYLINE
8
1
66
1
70
1
0
VERTEX
8
1
10
12.234138
20
5.915283
0
VERTEX
8
1
10
11.720245
20
5.915298
42
-1.000042
0
VERTEX
8
1
10
11.720245
20
5.960281
0
VERTEX
8
1
10
12.234138
20
5.960297
42
-1.000000
0
SEQEND
0
POLYLINE
8
1
66
1
70
1
0
VERTEX
8
1
10
10.942467
20
5.748611
42
-0.999661
0
VERTEX
8
1
10
10.942467
20
5.793625
0
VERTEX
8
1
10
11.456360
20
5.793625
42
-0.999661
0
VERTEX
8
1
10
11.456360
20
5.748611
0
SEQEND
0
POLYLINE
8
1
66
1
70
1
0
VERTEX
8
1
10
11.428581
20
5.915283
0
VERTEX
8
1
10
10.914688
20
5.915298
42
-1.000042
0
VERTEX
8
1
10
10.914688
20
5.960281
0
VERTEX
8
1
10
11.428581
20
5.960297
42
-1.000000
0
SEQEND
0
POLYLINE
8
1
66
1
70
1
0
VERTEX
8
1
10
13.746033
20
6.037460
42
-0.918510
0
VERTEX
8
1
10
13.746574
20
6.082306
0
VERTEX
8
1
10
14.220467
20
6.071381
42
-0.995347
0
VERTEX
8
1
10
14.220245
20
6.026398
0
SEQEND
0
POLYLINE
8
1
66
1
70
1
0
VERTEX
8
1
10
14.561180
20
4.779739
0
VERTEX
8
1
10
14.928581
20
4.779739
42
-0.973726
0
VERTEX
8
1
10
14.929749
20
4.734756
0
VERTEX
8
1
10
14.535141
20
4.734726
42
-0.393258
0
VERTEX
8
1
10
14.512634
20
4.755478
0
VERTEX
8
1
10
14.531090
20
5.886383
42
-0.975730
0
VERTEX
8
1
10
14.576073
20
5.888229
0
VERTEX
8
1
10
14.557968
20
4.781570
0
SEQEND
0
POLYLINE
8
1
66
1
70
1
0
VERTEX
8
1
10
14.733398
20
4.893982
42
-0.965664
0
VERTEX
8
1
10
14.688507
20
4.896652
0
VERTEX
8
1
10
14.711731
20
5.870453
42
-0.965685
0
VERTEX
8
1
10
14.756622
20
5.867813
0
SEQEND
0
POLYLINE
8
1
66
1
70
1
0
VERTEX
8
1
10
14.918625
20
4.866638
42
-0.965731
0
VERTEX
8
1
10
14.873672
20
4.868454
0
VERTEX
8
1
10
14.878372
20
5.842285
42
-0.964505
0
VERTEX
8
1
10
14.923302
20
5.840454
0
SEQEND
0
POLYLINE
8
1
66
1
70
1
0
VERTEX
8
1
10
14.978531
20
4.378433
42
-1.153875
0
VERTEX
8
1
10
14.935333
20
4.393677
42
-0.140335
0
VERTEX
8
1
10
15.077805
20
4.693741
42
-0.150085
0
VERTEX
8
1
10
15.257278
20
4.793137
0
VERTEX
8
1
10
15.324364
20
4.802383
42
-0.253362
0
VERTEX
8
1
10
15.587288
20
4.687759
42
-0.059512
0
VERTEX
8
1
10
15.687233
20
4.521606
42
-0.759792
0
VERTEX
8
1
10
15.645638
20
4.509155
0
VERTEX
8
1
10
15.614326
20
4.566132
42
0.156314
0
VERTEX
8
1
10
15.459229
20
4.733154
0
VERTEX
8
1
10
15.418617
20
4.748291
42
0.320778
0
VERTEX
8
1
10
15.067680
20
4.608856
42
0.103636
0
SEQEND
0
POLYLINE
8
1
66
1
70
1
0
VERTEX
8
1
10
15.131599
20
4.884933
42
-0.964696
0
VERTEX
8
1
10
15.086662
20
4.887177
0
VERTEX
8
1
10
15.100609
20
5.856400
42
-0.964494
0
VERTEX
8
1
10
15.145523
20
5.854126
0
SEQEND
0
POLYLINE
8
1
66
1
70
1
0
VERTEX
8
1
10
15.326103
20
4.960114
42
-0.989145
0
VERTEX
8
1
10
15.281105
20
4.961273
0
VERTEX
8
1
10
15.295006
20
5.841812
42
-0.970811
0
VERTEX
8
1
10
15.339973
20
5.840668
0
SEQEND
0
POLYLINE
8
1
66
1
70
1
0
VERTEX
8
1
10
15.492798
20
4.989975
42
-1.033542
0
VERTEX
8
1
10
15.447769
20
4.988953
0
VERTEX
8
1
10
15.457069
20
5.832901
42
-0.919301
0
VERTEX
8
1
10
15.501923
20
5.833328
0
SEQEND
0
POLYLINE
8
1
66
1
70
1
0
VERTEX
8
1
10
15.696465
20
4.988708
42
-0.937529
0
VERTEX
8
1
10
15.651642
20
4.985779
0
VERTEX
8
1
10
15.651489
20
5.832779
42
-0.936133
0
VERTEX
8
1
10
15.696411
20
5.832779
0
SEQEND
0
POLYLINE
8
1
66
1
70
1
0
VERTEX
8
1
10
15.491905
20
4.309174
0
VERTEX
8
1
10
15.546898
20
4.405472
42
-1.045557
0
VERTEX
8
1
10
15.586998
20
4.384964
0
VERTEX
8
1
10
15.531914
20
4.288559
42
-0.998144
0
SEQEND
0
POLYLINE
8
1
66
1
70
1
0
VERTEX
8
1
10
15.113808
20
4.050095
42
-0.956441
0
VERTEX
8
1
10
15.075623
20
4.073776
0
VERTEX
8
1
10
15.097458
20
4.117981
42
0.130074
0
VERTEX
8
1
10
15.114471
20
4.383698
42
-0.894172
0
VERTEX
8
1
10
15.159164
20
4.385757
42
-0.147176
0
VERTEX
8
1
10
15.131554
20
4.083389
0
SEQEND
0
POLYLINE
8
1
66
1
70
1
0
VERTEX
8
1
10
15.015762
20
4.271759
0
VERTEX
8
1
10
14.859940
20
4.271759
42
-0.108164
0
VERTEX
8
1
10
14.848114
20
4.131104
42
-0.180842
0
VERTEX
8
1
10
14.800240
20
4.078125
42
-0.907058
0
VERTEX
8
1
10
14.784386
20
4.120193
0
VERTEX
8
1
10
14.801903
20
4.139252
0
VERTEX
8
1
10
14.812447
20
4.164993
42
0.097476
0
VERTEX
8
1
10
14.808968
20
4.296341
42
-0.353835
0
VERTEX
8
1
10
14.828819
20
4.316620
0
VERTEX
8
1
10
15.019554
20
4.316589
42
-0.950812
0
SEQEND
0
POLYLINE
8
1
66
1
70
1
0
VERTEX
8
1
10
14.514221
20
4.452042
42
-0.020804
0
VERTEX
8
1
10
14.706360
20
4.437790
0
VERTEX
8
1
10
14.673798
20
4.425339
42
0.334523
0
VERTEX
8
1
10
14.573975
20
4.245575
0
VERTEX
8
1
10
14.576599
20
4.223511
0
VERTEX
8
1
10
14.581314
20
4.201813
42
-0.029878
0
VERTEX
8
1
10
14.051620
20
4.240662
0
VERTEX
8
1
10
14.034889
20
4.255508
42
-0.303965
0
VERTEX
8
1
10
14.081558
20
4.409302
42
-0.065816
0
VERTEX
8
1
10
14.137199
20
4.451691
42
-0.017120
0
SEQEND
0
POLYLINE
8
1
66
1
70
1
0
VERTEX
8
1
10
14.051781
20
4.502136
42
0.193504
0
VERTEX
8
1
10
13.920700
20
4.358521
0
VERTEX
8
1
10
13.910149
20
4.307388
0
VERTEX
8
1
10
13.909355
20
4.244949
42
-0.963662
0
VERTEX
8
1
10
13.864639
20
4.240097
42
-0.127650
0
VERTEX
8
1
10
13.891884
20
4.408264
42
-0.165188
0
VERTEX
8
1
10
14.038521
20
4.543594
42
-0.770583
0
SEQEND
0
POLYLINE
8
1
66
1
70
1
0
VERTEX
8
1
10
13.871956
20
4.610779
42
-1.067819
0
VERTEX
8
1
10
13.904305
20
4.642303
42
0.196591
0
VERTEX
8
1
10
13.955406
20
4.629425
0
VERTEX
8
1
10
13.987747
20
4.637299
0
VERTEX
8
1
10
14.027550
20
4.658981
0
VERTEX
8
1
10
14.074715
20
4.699051
42
-1.000345
0
VERTEX
8
1
10
14.106529
20
4.667236
42
-0.183505
0
VERTEX
8
1
10
13.954102
20
4.584152
42
-0.195283
0
SEQEND
0
POLYLINE
8
1
66
1
70
1
0
VERTEX
8
1
10
13.874176
20
3.994247
42
-0.951356
0
VERTEX
8
1
10
13.878868
20
4.038940
0
VERTEX
8
1
10
14.386719
20
4.011246
42
-1.003308
0
VERTEX
8
1
10
14.386902
20
3.966202
0
SEQEND
0
POLYLINE
8
1
66
1
70
1
0
VERTEX
8
1
10
14.179726
20
3.791702
42
-0.137493
0
VERTEX
8
1
10
14.352829
20
3.847351
42
0.008153
0
VERTEX
8
1
10
14.602287
20
3.869583
42
0.676260
0
VERTEX
8
1
10
14.625374
20
3.916992
42
0.098235
0
VERTEX
8
1
10
14.567574
20
3.979355
0
VERTEX
8
1
10
14.831497
20
3.993317
0
VERTEX
8
1
10
15.468056
20
3.854919
0
VERTEX
8
1
10
15.467949
20
3.854309
42
0.006154
0
VERTEX
8
1
10
14.604034
20
3.794540
42
0.042506
0
VERTEX
8
1
10
14.176857
20
3.657059
0
VERTEX
8
1
10
14.094177
20
3.624405
0
VERTEX
8
1
10
14.011940
20
3.590652
0
VERTEX
8
1
10
14.039635
20
3.701462
42
-0.019405
0
SEQEND
0
POLYLINE
8
1
66
1
70
1
0
VERTEX
8
1
10
15.528824
20
4.085052
42
0.008819
0
VERTEX
8
1
10
15.386917
20
4.007233
0
VERTEX
8
1
10
15.249580
20
4.007233
42
0.039531
0
VERTEX
8
1
10
15.428223
20
4.201233
0
VERTEX
8
1
10
15.433098
20
4.201675
0
VERTEX
8
1
10
15.831360
20
4.201675
0
VERTEX
8
1
10
15.831360
20
4.146744
0
VERTEX
8
1
10
15.830681
20
4.146011
42
0.042029
0
VERTEX
8
1
10
15.545410
20
4.093170
0
SEQEND
0
POLYLINE
8
1
66
1
70
1
0
VERTEX
8
1
10
15.640472
20
3.887619
42
-1.055656
0
VERTEX
8
1
10
15.636139
20
3.932495
0
VERTEX
8
1
10
16.016518
20
3.945618
0
VERTEX
8
1
10
16.017189
20
3.949875
0
VERTEX
8
1
10
16.017181
20
4.103348
42
-1.031996
0
VERTEX
8
1
10
16.062202
20
4.104141
0
VERTEX
8
1
10
16.062187
20
3.923904
42
-0.392485
0
VERTEX
8
1
10
16.041351
20
3.901459
0
SEQEND
0
POLYLINE
8
1
66
1
70
1
0
VERTEX
8
1
10
15.881683
20
4.980713
42
-0.961690
0
VERTEX
8
1
10
15.836845
20
4.976532
0
VERTEX
8
1
10
15.845970
20
5.823639
42
-0.926279
0
VERTEX
8
1
10
15.890808
20
5.824066
0
SEQEND
0
POLYLINE
8
1
66
1
70
1
0
VERTEX
8
1
10
14.566086
20
6.057465
0
VERTEX
8
1
10
15.887390
20
6.029724
42
-0.959445
0
VERTEX
8
1
10
15.888298
20
5.984772
0
VERTEX
8
1
10
14.566994
20
6.012512
42
-0.960137
0
SEQEND
0
POLYLINE
8
1
66
1
70
1
0
VERTEX
8
1
10
14.416634
20
6.705063
42
-0.030319
0
VERTEX
8
1
10
15.001930
20
6.665619
0
VERTEX
8
1
10
14.959236
20
6.661499
42
0.141411
0
VERTEX
8
1
10
14.665054
20
6.555206
42
0.120193
0
VERTEX
8
1
10
14.582390
20
6.449432
42
0.383708
0
VERTEX
8
1
10
14.615891
20
6.409149
0
VERTEX
8
1
10
14.636185
20
6.402023
42
0.060342
0
VERTEX
8
1
10
14.951111
20
6.374359
0
VERTEX
8
1
10
15.000038
20
6.373917
0
VERTEX
8
1
10
15.048965
20
6.373947
0
VERTEX
8
1
10
15.073875
20
6.372452
0
VERTEX
8
1
10
15.095695
20
6.369049
42
-0.421063
0
VERTEX
8
1
10
15.189438
20
6.249023
0
VERTEX
8
1
10
14.430954
20
6.229507
0
VERTEX
8
1
10
14.428566
20
6.227921
0
VERTEX
8
1
10
14.418625
20
5.124039
0
VERTEX
8
1
10
14.293831
20
5.124039
0
VERTEX
8
1
10
14.293449
20
6.248978
0
VERTEX
8
1
10
13.710548
20
6.248978
42
-0.248958
0
VERTEX
8
1
10
13.909584
20
6.582016
42
-0.047458
0
VERTEX
8
1
10
14.099297
20
6.678467
42
-0.056298
0
SEQEND
0
POLYLINE
8
1
66
1
70
1
0
VERTEX
8
1
10
12.011002
20
6.762863
42
-0.002426
0
VERTEX
8
1
10
13.955574
20
6.768265
42
0.205963
0
VERTEX
8
1
10
13.568298
20
6.426819
42
0.079310
0
VERTEX
8
1
10
13.524986
20
6.257187
0
VERTEX
8
1
10
13.512123
20
6.228165
42
-0.000820
0
VERTEX
8
1
10
10.481262
20
6.249329
42
-0.347421
0
VERTEX
8
1
10
10.706863
20
6.674164
42
-0.105134
0
VERTEX
8
1
10
11.048553
20
6.748383
42
-0.005244
0
SEQEND
0
POLYLINE
8
1
66
1
70
1
0
VERTEX
8
1
10
9.808365
20
7.666809
0
VERTEX
8
1
10
9.854591
20
7.625214
0
VERTEX
8
1
10
10.085098
20
7.881348
0
VERTEX
8
1
10
10.087624
20
7.882614
0
VERTEX
8
1
10
10.710632
20
7.877594
42
-0.222515
0
VERTEX
8
1
10
10.853271
20
7.691925
42
-0.072992
0
VERTEX
8
1
10
10.868401
20
7.562149
42
-0.028047
0
VERTEX
8
1
10
10.840698
20
7.118820
0
VERTEX
8
1
10
10.836578
20
7.118118
0
VERTEX
8
1
10
10.016541
20
7.072037
42
-0.171466
0
VERTEX
8
1
10
9.879089
20
7.266449
42
-0.019713
0
VERTEX
8
1
10
9.692574
20
7.885498
0
VERTEX
8
1
10
9.695190
20
7.885757
0
VERTEX
8
1
10
10.002655
20
7.883179
0
VERTEX
8
1
10
9.808563
20
7.667496
0
SEQEND
0
POLYLINE
8
1
66
1
70
1
0
VERTEX
8
1
10
10.152115
20
7.955811
42
-0.992394
0
VERTEX
8
1
10
10.106003
20
7.998001
0
VERTEX
8
1
10
10.309471
20
8.223953
42
-0.955541
0
VERTEX
8
1
10
10.355217
20
8.181488
0
SEQEND
0
POLYLINE
8
1
66
1
70
1
0
VERTEX
8
1
10
10.196243
20
6.985046
42
-1.218221
0
VERTEX
8
1
10
10.198189
20
7.029678
0
VERTEX
8
1
10
10.243225
20
7.030762
42
-0.002344
0
VERTEX
8
1
10
11.665085
20
7.039063
0
VERTEX
8
1
10
12.635895
20
6.881271
42
-0.941217
0
VERTEX
8
1
10
12.631409
20
6.836594
0
VERTEX
8
1
10
11.662903
20
6.993973
42
0.002612
0
SEQEND
0
POLYLINE
8
1
66
1
70
1
0
VERTEX
8
1
10
11.251938
20
7.915039
42
-0.006069
0
VERTEX
8
1
10
11.337486
20
7.923157
0
VERTEX
8
1
10
11.523926
20
7.245468
0
VERTEX
8
1
10
11.518425
20
7.238358
42
0.074053
0
VERTEX
8
1
10
11.364899
20
7.129639
0
VERTEX
8
1
10
11.299629
20
7.132202
0
VERTEX
8
1
10
11.298935
20
7.132629
42
-0.015642
0
VERTEX
8
1
10
11.247231
20
7.847748
0
VERTEX
8
1
10
11.247383
20
7.898010
0
SEQEND
0
POLYLINE
8
1
66
1
70
1
0
VERTEX
8
1
10
11.309616
20
8.024506
0
VERTEX
8
1
10
11.273308
20
8.166138
42
-1.000252
0
VERTEX
8
1
10
11.333855
20
8.181656
0
VERTEX
8
1
10
11.370163
20
8.040024
42
-1.000252
0
SEQEND
0
POLYLINE
8
1
66
1
70
1
0
VERTEX
8
1
10
11.464287
20
7.131363
42
-0.040382
0
VERTEX
8
1
10
11.542007
20
7.179733
0
VERTEX
8
1
10
11.557426
20
7.123688
0
VERTEX
8
1
10
11.557137
20
7.122086
0
VERTEX
8
1
10
11.457932
20
7.125992
0
SEQEND
0
POLYLINE
8
1
66
1
70
1
0
VERTEX
8
1
10
11.623184
20
7.120300
0
VERTEX
8
1
10
11.599762
20
7.205444
42
-0.173805
0
VERTEX
8
1
10
11.939194
20
7.214081
42
-0.240931
0
VERTEX
8
1
10
12.064354
20
7.068390
0
VERTEX
8
1
10
12.060867
20
7.064621
0
VERTEX
8
1
10
11.771019
20
7.113708
0
VERTEX
8
1
10
11.624023
20
7.119476
0
SEQEND
0
POLYLINE
8
1
66
1
70
1
0
VERTEX
8
1
10
12.209244
20
7.855225
42
0.001604
0
VERTEX
8
1
10
12.488747
20
7.530075
42
-0.014384
0
VERTEX
8
1
10
12.653114
20
7.040192
0
VERTEX
8
1
10
12.657257
20
7.031097
42
-0.543048
0
VERTEX
8
1
10
12.626724
20
6.972076
0
VERTEX
8
1
10
12.618446
20
6.970184
0
VERTEX
8
1
10
12.137054
20
7.051727
0
VERTEX
8
1
10
12.132149
20
7.054794
42
0.322145
0
VERTEX
8
1
10
11.901123
20
7.291443
42
0.135356
0
VERTEX
8
1
10
11.584457
20
7.266739
0
VERTEX
8
1
10
11.581383
20
7.272202
0
VERTEX
8
1
10
11.402237
20
7.923447
0
VERTEX
8
1
10
11.415367
20
7.928787
42
-0.062682
0
VERTEX
8
1
10
12.100975
20
7.896576
0
VERTEX
8
1
10
12.142067
20
7.887314
0
VERTEX
8
1
10
12.180481
20
7.877045
0
SEQEND
0
POLYLINE
8
1
66
1
70
1
0
VERTEX
8
1
10
11.902100
20
8.226776
42
-0.971281
0
VERTEX
8
1
10
11.954086
20
8.261429
42
0.023052
0
VERTEX
8
1
10
12.157951
20
8.012085
0
VERTEX
8
1
10
12.176979
20
7.989136
42
-0.894731
0
VERTEX
8
1
10
12.128319
20
7.950516
42
-0.014870
0
SEQEND
0
POLYLINE
8
1
66
1
70
1
0
VERTEX
8
1
10
7.229179
20
7.648376
42
-0.128143
0
VERTEX
8
1
10
7.322243
20
8.172745
42
-0.218529
0
VERTEX
8
1
10
7.727669
20
8.504959
42
-0.046452
0
VERTEX
8
1
10
8.210701
20
8.574310
42
-0.021913
0
VERTEX
8
1
10
9.581993
20
8.588104
42
0.001695
0
VERTEX
8
1
10
10.739708
20
8.556046
42
-0.054741
0
VERTEX
8
1
10
11.546715
20
8.405472
42
-0.074517
0
VERTEX
8
1
10
11.741707
20
8.311951
42
-0.223800
0
VERTEX
8
1
10
11.794853
20
8.236084
42
-0.080273
0
VERTEX
8
1
10
11.793762
20
8.228043
42
0.035026
0
VERTEX
8
1
10
10.970139
20
8.309616
42
0.017079
0
VERTEX
8
1
10
9.977989
20
8.326645
0
VERTEX
8
1
10
9.921387
20
8.324234
42
0.087516
0
VERTEX
8
1
10
9.737961
20
8.288086
42
0.147716
0
VERTEX
8
1
10
9.574852
20
8.194168
42
0.177343
0
VERTEX
8
1
10
9.532494
20
8.048447
0
VERTEX
8
1
10
9.534622
20
8.014420
42
0.038770
0
VERTEX
8
1
10
9.630753
20
7.636902
42
0.010144
0
VERTEX
8
1
10
9.814705
20
7.082260
42
0.202596
0
VERTEX
8
1
10
10.013245
20
6.933884
42
0.082199
0
VERTEX
8
1
10
10.189079
20
6.914490
0
VERTEX
8
1
10
10.286324
20
6.919556
42
-0.010657
0
VERTEX
8
1
10
11.590622
20
6.928528
42
-0.069114
0
VERTEX
8
1
10
11.372704
20
6.849045
42
-0.028329
0
VERTEX
8
1
10
10.925919
20
6.831848
42
0.154113
0
VERTEX
8
1
10
10.523254
20
6.682739
42
0.166173
0
VERTEX
8
1
10
10.351463
20
6.396286
0
VERTEX
8
1
10
10.339249
20
6.327560
0
VERTEX
8
1
10
10.326973
20
6.287918
42
-0.220551
0
VERTEX
8
1
10
10.218605
20
6.290848
42
-0.215273
0
VERTEX
8
1
10
10.193130
20
6.343216
42
0.156726
0
VERTEX
8
1
10
10.078400
20
6.535110
42
0.250879
0
VERTEX
8
1
10
9.958855
20
6.552719
42
0.100572
0
VERTEX
8
1
10
9.671867
20
6.397995
42
0.059383
0
VERTEX
8
1
10
9.647148
20
6.892441
42
0.061237
0
VERTEX
8
1
10
9.418999
20
7.721176
42
0.089108
0
VERTEX
8
1
10
9.180603
20
8.089127
42
0.187286
0
VERTEX
8
1
10
8.775909
20
8.277649
42
0.069097
0
VERTEX
8
1
10
7.759438
20
8.235016
0
VERTEX
8
1
10
7.715790
20
8.224976
0
VERTEX
8
1
10
7.677269
20
8.214432
42
0.121305
0
VERTEX
8
1
10
7.530243
20
8.127396
42
0.211010
0
VERTEX
8
1
10
7.346222
20
7.806717
42
0.036118
0
VERTEX
8
1
10
7.335670
20
7.644760
0
VERTEX
8
1
10
7.231544
20
7.623917
0
SEQEND
0
POLYLINE
8
1
66
1
70
1
0
VERTEX
8
1
10
10.095245
20
6.271118
42
-0.252330
0
VERTEX
8
1
10
10.038254
20
6.139313
42
-0.388949
0
VERTEX
8
1
10
9.962708
20
6.159027
42
-0.304452
0
VERTEX
8
1
10
9.962708
20
6.383209
42
-0.544455
0
VERTEX
8
1
10
10.061134
20
6.383209
42
-0.166715
0
SEQEND
0
POLYLINE
8
1
66
1
70
1
0
VERTEX
8
1
10
9.886635
20
6.416916
42
0.158578
0
VERTEX
8
1
10
9.866081
20
6.139175
42
-0.095412
0
VERTEX
8
1
10
9.720749
20
6.265564
0
VERTEX
8
1
10
9.710579
20
6.283676
42
-0.438519
0
VERTEX
8
1
10
9.739349
20
6.369781
42
-0.106454
0
SEQEND
0
POLYLINE
8
1
66
1
70
1
0
VERTEX
8
1
10
9.522713
20
6.478592
0
VERTEX
8
1
10
9.577652
20
6.487747
42
-0.953489
0
VERTEX
8
1
10
9.587181
20
6.443832
0
VERTEX
8
1
10
9.501724
20
6.429489
42
-0.463572
0
VERTEX
8
1
10
9.475525
20
6.451675
0
VERTEX
8
1
10
9.475601
20
6.649231
42
-0.367776
0
VERTEX
8
1
10
9.530029
20
6.707397
42
-0.164621
0
VERTEX
8
1
10
9.608513
20
6.705948
42
-0.929393
0
VERTEX
8
1
10
9.581886
20
6.666565
42
0.216871
0
VERTEX
8
1
10
9.521820
20
6.652802
0
VERTEX
8
1
10
9.520966
20
6.650513
0
VERTEX
8
1
10
9.520607
20
6.648087
0
VERTEX
8
1
10
9.520523
20
6.479904
0
SEQEND
0
POLYLINE
8
1
66
1
70
1
0
VERTEX
8
1
10
9.580200
20
5.686432
42
0.001503
0
VERTEX
8
1
10
9.603119
20
5.057053
42
-0.811212
0
VERTEX
8
1
10
9.559135
20
5.059265
42
-0.011501
0
VERTEX
8
1
10
9.531227
20
5.931381
42
-0.036205
0
VERTEX
8
1
10
9.544960
20
6.162445
0
VERTEX
8
1
10
9.544968
20
6.298019
42
-0.968024
0
VERTEX
8
1
10
9.589859
20
6.301224
0
VERTEX
8
1
10
9.589836
20
6.157532
42
0.046051
0
VERTEX
8
1
10
9.576530
20
5.965179
42
0.010687
0
SEQEND
0
POLYLINE
8
1
66
1
70
1
0
VERTEX
8
1
10
9.445595
20
6.724640
42
-0.197890
0
VERTEX
8
1
10
9.239243
20
6.529297
0
VERTEX
8
1
10
9.194710
20
6.512817
42
-0.072711
0
VERTEX
8
1
10
8.892639
20
6.482025
42
-0.008818
0
VERTEX
8
1
10
7.434708
20
6.513916
42
-0.782786
0
VERTEX
8
1
10
7.439629
20
6.557495
42
0.008918
0
VERTEX
8
1
10
8.914230
20
6.527267
0
VERTEX
8
1
10
8.995193
20
6.528687
42
0.158221
0
VERTEX
8
1
10
9.300247
20
6.616257
42
0.132535
0
VERTEX
8
1
10
9.413841
20
6.760361
42
-0.817810
0
VERTEX
8
1
10
9.448830
20
6.733032
0
SEQEND
0
POLYLINE
8
1
66
1
70
1
0
VERTEX
8
1
10
9.401413
20
6.183472
42
-0.939471
0
VERTEX
8
1
10
9.403152
20
6.138596
0
VERTEX
8
1
10
7.456207
20
6.183701
42
-0.939133
0
VERTEX
8
1
10
7.454468
20
6.228577
0
SEQEND
0
POLYLINE
8
1
66
1
70
1
0
VERTEX
8
1
10
9.030197
20
8.006485
42
-1.081740
0
VERTEX
8
1
10
8.990959
20
7.983521
42
0.147204
0
VERTEX
8
1
10
8.861275
20
8.047363
42
0.073862
0
VERTEX
8
1
10
8.577042
20
8.067276
42
0.015422
0
VERTEX
8
1
10
7.742844
20
7.999420
42
0.140300
0
VERTEX
8
1
10
7.638771
20
7.838287
42
0.079753
0
VERTEX
8
1
10
7.584518
20
7.529327
42
0.022550
0
VERTEX
8
1
10
7.575958
20
6.900101
42
0.187306
0
VERTEX
8
1
10
7.641914
20
6.746780
42
0.197783
0
VERTEX
8
1
10
7.726913
20
6.722061
0
VERTEX
8
1
10
7.784798
20
6.720749
42
0.007777
0
VERTEX
8
1
10
9.012268
20
6.738129
42
0.152317
0
VERTEX
8
1
10
9.201286
20
6.814056
42
0.148110
0
VERTEX
8
1
10
9.256897
20
6.908310
42
-0.825374
0
VERTEX
8
1
10
9.297890
20
6.891846
42
-0.243935
0
VERTEX
8
1
10
9.146599
20
6.726273
42
-0.076077
0
VERTEX
8
1
10
9.016884
20
6.693375
42
-0.009252
0
VERTEX
8
1
10
7.736259
20
6.676926
0
VERTEX
8
1
10
7.699135
20
6.678497
42
-0.273270
0
VERTEX
8
1
10
7.569481
20
6.765503
42
-0.099378
0
VERTEX
8
1
10
7.531136
20
6.894531
42
-0.030643
0
VERTEX
8
1
10
7.550003
20
7.654510
42
-0.105664
0
VERTEX
8
1
10
7.643349
20
7.951736
42
-0.139204
0
VERTEX
8
1
10
7.727127
20
8.042496
0
VERTEX
8
1
10
7.729248
20
8.043076
42
-0.018931
0
VERTEX
8
1
10
8.641327
20
8.114182
42
-0.101064
0
VERTEX
8
1
10
8.945618
20
8.066040
42
-0.136906
0
SEQEND
0
POLYLINE
8
1
66
1
70
1
0
VERTEX
8
1
10
8.406281
20
7.896103
0
VERTEX
8
1
10
9.090660
20
7.890625
42
-0.062211
0
VERTEX
8
1
10
9.278450
20
7.309952
42
-0.066209
0
VERTEX
8
1
10
9.287582
20
7.101654
0
VERTEX
8
1
10
9.281898
20
7.083023
0
VERTEX
8
1
10
8.155411
20
7.099823
42
-0.096355
0
VERTEX
8
1
10
8.174461
20
7.659653
42
-0.130864
0
VERTEX
8
1
10
8.271454
20
7.845001
42
-0.212830
0
SEQEND
0
POLYLINE
8
1
66
1
70
1
0
VERTEX
8
1
10
6.730324
20
6.336609
42
-1.000361
0
VERTEX
8
1
10
6.728722
20
6.381561
0
VERTEX
8
1
10
6.987961
20
6.390808
42
-1.000021
0
VERTEX
8
1
10
6.989563
20
6.345856
0
SEQEND
0
POLYLINE
8
1
66
1
70
1
0
VERTEX
8
1
10
6.817329
20
4.423721
0
VERTEX
8
1
10
6.889992
20
4.409180
42
-0.968186
0
VERTEX
8
1
10
6.885277
20
4.364410
0
VERTEX
8
1
10
6.793350
20
4.382614
42
-0.358645
0
VERTEX
8
1
10
6.771973
20
4.402649
0
VERTEX
8
1
10
6.771843
20
6.165527
42
-0.390722
0
VERTEX
8
1
10
6.793411
20
6.187119
0
VERTEX
8
1
10
6.894638
20
6.187134
42
-1.023520
0
VERTEX
8
1
10
6.896645
20
6.142136
0
VERTEX
8
1
10
6.817665
20
6.142136
0
VERTEX
8
1
10
6.816811
20
6.140427
0
VERTEX
8
1
10
6.816818
20
4.428497
0
SEQEND
0
POLYLINE
8
1
66
1
70
1
0
VERTEX
8
1
10
6.776527
20
3.974197
0
VERTEX
8
1
10
6.892570
20
3.954926
42
-0.903670
0
VERTEX
8
1
10
6.885735
20
3.910675
0
VERTEX
8
1
10
6.771118
20
3.929688
42
-0.914343
0
SEQEND
0
POLYLINE
8
1
66
1
70
1
0
VERTEX
8
1
10
6.605591
20
3.966034
0
VERTEX
8
1
10
6.651474
20
6.303970
42
-0.959431
0
VERTEX
8
1
10
6.696434
20
6.304932
0
VERTEX
8
1
10
6.650131
20
3.941574
42
-0.380746
0
VERTEX
8
1
10
6.629356
20
3.919968
0
VERTEX
8
1
10
6.441620
20
3.929169
42
-0.996910
0
VERTEX
8
1
10
6.443184
20
3.974152
0
SEQEND
0
POLYLINE
8
1
66
1
70
1
0
VERTEX
8
1
10
6.308990
20
4.716171
0
VERTEX
8
1
10
6.367935
20
4.692215
42
-0.499538
0
VERTEX
8
1
10
6.376373
20
4.651794
42
-0.033690
0
VERTEX
8
1
10
6.315361
20
4.515900
42
-0.359172
0
VERTEX
8
1
10
6.287102
20
4.510788
0
VERTEX
8
1
10
6.239876
20
4.537125
0
VERTEX
8
1
10
6.232407
20
4.540634
42
-0.011615
0
VERTEX
8
1
10
6.203651
20
4.489975
0
VERTEX
8
1
10
6.257362
20
4.452820
42
-0.395439
0
VERTEX
8
1
10
6.262375
20
4.422409
42
-0.043386
0
VERTEX
8
1
10
6.163101
20
4.291885
42
-0.293952
0
VERTEX
8
1
10
6.138756
20
4.292297
0
VERTEX
8
1
10
6.089302
20
4.338013
42
-0.019701
0
VERTEX
8
1
10
6.048874
20
4.296402
0
VERTEX
8
1
10
6.091949
20
4.245117
42
-0.389893
0
VERTEX
8
1
10
6.087822
20
4.214966
42
-0.052646
0
VERTEX
8
1
10
5.953293
20
4.117844
42
-0.289261
0
VERTEX
8
1
10
5.930595
20
4.125900
0
VERTEX
8
1
10
5.899162
20
4.180023
0
VERTEX
8
1
10
5.896179
20
4.184235
42
-0.024886
0
VERTEX
8
1
10
5.845268
20
4.158173
42
-0.321637
0
VERTEX
8
1
10
5.846138
20
4.124313
0
VERTEX
8
1
10
5.793030
20
4.048279
42
-1.000390
0
VERTEX
8
1
10
5.758614
20
4.077438
0
VERTEX
8
1
10
5.800598
20
4.137650
0
VERTEX
8
1
10
5.803185
20
4.142242
0
VERTEX
8
1
10
5.800842
20
4.147827
42
-0.444731
0
VERTEX
8
1
10
5.807205
20
4.190460
42
0.025253
0
VERTEX
8
1
10
5.898109
20
4.236588
42
-0.320846
0
VERTEX
8
1
10
5.923073
20
4.228394
0
VERTEX
8
1
10
5.954659
20
4.173798
0
VERTEX
8
1
10
5.956360
20
4.171539
42
0.035367
0
VERTEX
8
1
10
6.041672
20
4.234863
0
VERTEX
8
1
10
6.001953
20
4.282227
42
-0.511545
0
VERTEX
8
1
10
6.008881
20
4.321060
42
0.017354
0
VERTEX
8
1
10
6.075317
20
4.388489
42
-0.330697
0
VERTEX
8
1
10
6.102356
20
4.387634
0
VERTEX
8
1
10
6.149223
20
4.343796
42
0.026941
0
VERTEX
8
1
10
6.212646
20
4.428802
0
VERTEX
8
1
10
6.161324
20
4.464539
42
-0.387184
0
VERTEX
8
1
10
6.152908
20
4.493759
42
0.016550
0
VERTEX
8
1
10
6.207382
20
4.587799
42
-0.322796
0
VERTEX
8
1
10
6.233337
20
4.592270
0
VERTEX
8
1
10
6.288017
20
4.561798
0
VERTEX
8
1
10
6.290665
20
4.565826
0
VERTEX
8
1
10
6.310448
20
4.608765
0
VERTEX
8
1
10
6.330811
20
4.658630
0
VERTEX
8
1
10
6.272629
20
4.682388
42
-0.383012
0
VERTEX
8
1
10
6.258835
20
4.709106
42
-0.007305
0
VERTEX
8
1
10
6.295441
20
4.816101
42
-0.284053
0
VERTEX
8
1
10
6.318321
20
4.822693
0
VERTEX
8
1
10
6.377167
20
4.804108
42
0.004301
0
VERTEX
8
1
10
6.399635
20
4.897049
42
-0.819139
0
VERTEX
8
1
10
6.440987
20
4.881638
42
-0.035602
0
VERTEX
8
1
10
6.411949
20
4.763168
42
-0.333987
0
VERTEX
8
1
10
6.386543
20
4.753952
0
VERTEX
8
1
10
6.327248
20
4.772690
42
-0.017051
0
SEQEND
0
POLYLINE
8
1
66
1
70
1
0
VERTEX
8
1
10
6.043221
20
4.983002
0
VERTEX
8
1
10
5.898766
20
5.018402
0
VERTEX
8
1
10
5.934792
20
5.168045
0
VERTEX
8
1
10
6.066292
20
5.104401
0
SEQEND
0
POLYLINE
8
1
66
1
70
1
0
VERTEX
8
1
10
6.059082
20
4.545364
0
VERTEX
8
1
10
6.062202
20
4.613708
42
-1.047259
0
VERTEX
8
1
10
6.107147
20
4.611557
0
VERTEX
8
1
10
6.103767
20
4.537445
42
-0.113547
0
VERTEX
8
1
10
6.101189
20
4.527740
0
VERTEX
8
1
10
6.016518
20
4.391724
42
-1.020394
0
VERTEX
8
1
10
5.976418
20
4.412369
0
SEQEND
0
POLYLINE
8
1
66
1
70
1
0
VERTEX
8
1
10
5.991814
20
4.625137
0
VERTEX
8
1
10
5.927933
20
4.505585
0
VERTEX
8
1
10
5.771896
20
4.671219
0
VERTEX
8
1
10
5.817657
20
4.777191
0
SEQEND
0
POLYLINE
8
1
66
1
70
1
0
VERTEX
8
1
10
6.244217
20
5.301376
0
VERTEX
8
1
10
6.153519
20
5.363144
42
-0.973466
0
VERTEX
8
1
10
6.177826
20
5.401001
0
VERTEX
8
1
10
6.280128
20
5.331345
42
-0.268551
0
VERTEX
8
1
10
6.290665
20
5.311356
0
VERTEX
8
1
10
6.271194
20
5.141144
42
-0.949068
0
VERTEX
8
1
10
6.227028
20
5.149490
0
SEQEND
0
POLYLINE
8
1
66
1
70
1
0
VERTEX
8
1
10
6.140091
20
4.767990
0
VERTEX
8
1
10
6.191689
20
4.938522
42
-0.219619
0
VERTEX
8
1
10
6.204201
20
4.952621
0
VERTEX
8
1
10
6.293594
20
4.991760
42
-0.999630
0
VERTEX
8
1
10
6.311638
20
4.950516
0
VERTEX
8
1
10
6.231750
20
4.915558
0
VERTEX
8
1
10
6.183167
20
4.754959
42
-0.999692
0
SEQEND
0
POLYLINE
8
1
66
1
70
1
0
VERTEX
8
1
10
6.354866
20
6.150284
42
-0.442627
0
VERTEX
8
1
10
6.373138
20
6.178085
0
VERTEX
8
1
10
6.421822
20
6.185898
0
VERTEX
8
1
10
6.425758
20
6.186920
0
VERTEX
8
1
10
6.396507
20
6.289017
42
-1.013010
0
VERTEX
8
1
10
6.440918
20
6.297073
0
VERTEX
8
1
10
6.476547
20
6.172684
42
-0.406549
0
VERTEX
8
1
10
6.459335
20
6.146393
0
VERTEX
8
1
10
6.404831
20
6.137589
0
VERTEX
8
1
10
6.405930
20
6.131485
0
VERTEX
8
1
10
6.428360
20
6.041718
42
0.024605
0
VERTEX
8
1
10
6.501221
20
6.065781
42
-0.371527
0
VERTEX
8
1
10
6.524467
20
6.047760
0
VERTEX
8
1
10
6.566521
20
5.846695
42
-0.376099
0
VERTEX
8
1
10
6.550690
20
5.821671
0
VERTEX
8
1
10
6.476578
20
5.797485
0
VERTEX
8
1
10
6.472733
20
5.795135
0
VERTEX
8
1
10
6.480026
20
5.718964
0
VERTEX
8
1
10
6.481621
20
5.716202
0
VERTEX
8
1
10
6.542404
20
5.733109
42
-0.499977
0
VERTEX
8
1
10
6.572731
20
5.713486
42
-0.034383
0
VERTEX
8
1
10
6.566132
20
5.514603
42
-0.318149
0
VERTEX
8
1
10
6.543610
20
5.500824
0
VERTEX
8
1
10
6.480072
20
5.505859
42
-0.003508
0
VERTEX
8
1
10
6.474602
20
5.446732
0
VERTEX
8
1
10
6.539864
20
5.437500
42
-0.435139
0
VERTEX
8
1
10
6.555176
20
5.406570
42
-0.027510
0
VERTEX
8
1
10
6.526855
20
5.255356
42
-0.329238
0
VERTEX
8
1
10
6.502380
20
5.244522
0
VERTEX
8
1
10
6.440315
20
5.258392
0
VERTEX
8
1
10
6.426956
20
5.204849
0
VERTEX
8
1
10
6.426292
20
5.200684
0
VERTEX
8
1
10
6.489151
20
5.182312
42
-0.391895
0
VERTEX
8
1
10
6.501961
20
5.154480
42
-0.028423
0
VERTEX
8
1
10
6.459000
20
5.026382
42
-0.852036
0
VERTEX
8
1
10
6.419167
20
5.046127
42
0.014861
0
VERTEX
8
1
10
6.452721
20
5.146179
0
VERTEX
8
1
10
6.391121
20
5.164063
42
-0.406883
0
VERTEX
8
1
10
6.376373
20
5.191757
42
0.018296
0
VERTEX
8
1
10
6.402435
20
5.293533
42
-0.354041
0
VERTEX
8
1
10
6.427452
20
5.307419
0
VERTEX
8
1
10
6.489693
20
5.293488
42
0.017237
0
VERTEX
8
1
10
6.508484
20
5.396622
0
VERTEX
8
1
10
6.444290
20
5.405518
42
-0.398327
0
VERTEX
8
1
10
6.426300
20
5.430649
42
0.010003
0
VERTEX
8
1
10
6.438133
20
5.536377
42
-0.319464
0
VERTEX
8
1
10
6.459068
20
5.552536
0
VERTEX
8
1
10
6.524521
20
5.547562
42
0.020058
0
VERTEX
8
1
10
6.527863
20
5.682343
0
VERTEX
8
1
10
6.466187
20
5.665192
42
-0.421265
0
VERTEX
8
1
10
6.438576
20
5.681824
0
VERTEX
8
1
10
6.426018
20
5.811981
42
-0.342397
0
VERTEX
8
1
10
6.443085
20
5.833893
0
VERTEX
8
1
10
6.515907
20
5.857651
0
VERTEX
8
1
10
6.517189
20
5.862869
0
VERTEX
8
1
10
6.486275
20
6.010483
0
VERTEX
8
1
10
6.483063
20
6.012741
0
VERTEX
8
1
10
6.420837
20
5.991104
42
-0.444156
0
VERTEX
8
1
10
6.390915
20
6.005981
0
SEQEND
0
POLYLINE
8
1
66
1
70
1
0
VERTEX
8
1
10
6.238853
20
5.740677
0
VERTEX
8
1
10
6.314980
20
5.857346
42
-1.008300
0
VERTEX
8
1
10
6.352470
20
5.832413
0
VERTEX
8
1
10
6.281799
20
5.724213
0
VERTEX
8
1
10
6.298790
20
5.544937
42
-0.961632
0
VERTEX
8
1
10
6.253853
20
5.543442
0
VERTEX
8
1
10
6.236099
20
5.726898
42
-0.158981
0
SEQEND
0
POLYLINE
8
1
66
1
70
1
0
VERTEX
8
1
10
6.136246
20
6.142151
42
-1.036169
0
VERTEX
8
1
10
6.163460
20
6.177948
0
VERTEX
8
1
10
6.243896
20
6.117065
42
-0.218749
0
VERTEX
8
1
10
6.253830
20
6.100830
0
VERTEX
8
1
10
6.267754
20
5.962570
42
-0.973187
0
VERTEX
8
1
10
6.222847
20
5.959503
0
VERTEX
8
1
10
6.210472
20
6.082321
0
VERTEX
8
1
10
6.209030
20
6.087036
0
SEQEND
0
POLYLINE
8
1
66
1
70
1
0
VERTEX
8
1
10
6.118004
20
5.469467
0
VERTEX
8
1
10
5.959641
20
5.455093
0
VERTEX
8
1
10
5.950012
20
5.628448
0
VERTEX
8
1
10
6.107430
20
5.621246
0
SEQEND
0
POLYLINE
8
1
66
1
70
1
0
VERTEX
8
1
10
6.017197
20
6.491882
0
VERTEX
8
1
10
6.011551
20
6.571808
42
-0.939012
0
VERTEX
8
1
10
6.056351
20
6.574936
0
VERTEX
8
1
10
6.061378
20
6.503143
0
VERTEX
8
1
10
6.063171
20
6.498413
0
VERTEX
8
1
10
6.108688
20
6.403809
42
-0.918420
0
VERTEX
8
1
10
6.067566
20
6.385910
0
VERTEX
8
1
10
6.019859
20
6.484589
0
SEQEND
0
POLYLINE
8
1
66
1
70
1
0
VERTEX
8
1
10
6.042023
20
6.106918
0
VERTEX
8
1
10
6.059738
20
5.983597
0
VERTEX
8
1
10
5.922668
20
5.925049
0
VERTEX
8
1
10
5.899742
20
6.063004
0
SEQEND
0
POLYLINE
8
1
66
1
70
1
0
VERTEX
8
1
10
5.800842
20
6.326859
0
VERTEX
8
1
10
5.753311
20
6.437103
0
VERTEX
8
1
10
5.862854
20
6.532944
0
VERTEX
8
1
10
5.928528
20
6.436295
0
SEQEND
0
POLYLINE
8
1
66
1
70
1
0
VERTEX
8
1
10
5.821625
20
6.807693
0
VERTEX
8
1
10
5.773422
20
6.809875
42
-1.004102
0
VERTEX
8
1
10
5.775284
20
6.854843
0
VERTEX
8
1
10
5.835548
20
6.852097
42
-0.279020
0
VERTEX
8
1
10
5.855507
20
6.839844
0
VERTEX
8
1
10
5.927719
20
6.707901
42
-0.972459
0
VERTEX
8
1
10
5.889511
20
6.684174
0
SEQEND
0
POLYLINE
8
1
66
1
70
1
0
VERTEX
8
1
10
5.638268
20
6.860184
0
VERTEX
8
1
10
5.705574
20
6.799484
0
VERTEX
8
1
10
5.618034
20
6.673798
0
VERTEX
8
1
10
5.556549
20
6.734253
0
SEQEND
0
POLYLINE
8
1
66
1
70
1
0
VERTEX
8
1
10
5.358467
20
6.874329
42
-1.000019
0
VERTEX
8
1
10
5.318527
20
6.895081
0
VERTEX
8
1
10
5.395378
20
7.042862
42
-1.000047
0
VERTEX
8
1
10
5.435310
20
7.022110
0
SEQEND
0
POLYLINE
8
1
66
1
70
1
0
VERTEX
8
1
10
5.009933
20
6.899948
0
VERTEX
8
1
10
5.014854
20
7.007553
42
-0.955528
0
VERTEX
8
1
10
5.059807
20
7.007538
0
VERTEX
8
1
10
5.054970
20
6.899780
42
-1.051467
0
SEQEND
0
POLYLINE
8
1
66
1
70
1
0
VERTEX
8
1
10
4.985664
20
6.773758
42
-0.934420
0
VERTEX
8
1
10
4.974869
20
6.817337
42
-0.128606
0
VERTEX
8
1
10
5.307236
20
6.804840
42
-0.129632
0
VERTEX
8
1
10
5.580803
20
6.613968
42
-0.087652
0
VERTEX
8
1
10
5.781349
20
6.274689
42
-0.096469
0
VERTEX
8
1
10
5.898865
20
5.570084
42
-0.082995
0
VERTEX
8
1
10
5.780785
20
4.875290
42
-0.114479
0
VERTEX
8
1
10
5.534325
20
4.483749
42
-0.856364
0
VERTEX
8
1
10
5.508400
20
4.519867
42
0.116537
0
VERTEX
8
1
10
5.749214
20
4.919968
0
VERTEX
8
1
10
5.771141
20
4.987427
42
0.122958
0
VERTEX
8
1
10
5.804634
20
6.044495
42
0.122010
0
VERTEX
8
1
10
5.543571
20
6.586685
42
0.192603
0
VERTEX
8
1
10
5.179405
20
6.786255
42
0.070615
0
SEQEND
0
POLYLINE
8
1
66
1
70
1
0
VERTEX
8
1
10
5.742493
20
4.283524
0
VERTEX
8
1
10
5.679260
20
4.178360
0
VERTEX
8
1
10
5.559196
20
4.363922
0
VERTEX
8
1
10
5.638924
20
4.446732
0
SEQEND
0
POLYLINE
8
1
66
1
70
1
0
VERTEX
8
1
10
5.285110
20
5.239182
42
0.131424
0
VERTEX
8
1
10
5.256615
20
5.416397
0
VERTEX
8
1
10
5.242317
20
5.435867
42
0.654734
0
VERTEX
8
1
10
5.082344
20
5.378662
42
0.126655
0
VERTEX
8
1
10
5.124435
20
5.225815
42
0.197518
0
VERTEX
8
1
10
5.190872
20
5.185043
0
VERTEX
8
1
10
5.203598
20
5.178665
42
-0.150720
0
VERTEX
8
1
10
5.210999
20
5.053528
42
-0.124902
0
VERTEX
8
1
10
5.074898
20
5.150558
42
-0.178490
0
VERTEX
8
1
10
4.917931
20
5.564484
42
-0.137174
0
VERTEX
8
1
10
4.991173
20
5.910736
42
-0.154994
0
VERTEX
8
1
10
5.153740
20
6.066330
42
-0.367676
0
VERTEX
8
1
10
5.333122
20
6.081894
42
-0.572247
0
VERTEX
8
1
10
5.332191
20
6.053085
42
0.026345
0
VERTEX
8
1
10
5.216553
20
5.929916
0
VERTEX
8
1
10
5.202194
20
5.906113
42
0.435290
0
VERTEX
8
1
10
5.220940
20
5.822891
0
VERTEX
8
1
10
5.239792
20
5.809433
42
0.375278
0
VERTEX
8
1
10
5.355736
20
5.821259
42
0.002673
0
VERTEX
8
1
10
5.398109
20
5.858749
42
-0.281064
0
VERTEX
8
1
10
5.470261
20
5.785065
42
0.227336
0
VERTEX
8
1
10
5.345238
20
5.578613
42
0.125966
0
VERTEX
8
1
10
5.388824
20
5.318741
42
0.066379
0
VERTEX
8
1
10
5.442490
20
5.210922
0
VERTEX
8
1
10
5.359291
20
5.109253
0
VERTEX
8
1
10
5.285660
20
5.237686
0
SEQEND
0
POLYLINE
8
1
66
1
70
1
0
VERTEX
8
1
10
5.380890
20
4.266205
42
-0.963220
0
VERTEX
8
1
10
5.424782
20
4.275940
0
VERTEX
8
1
10
5.463509
20
4.101517
42
-1.050890
0
VERTEX
8
1
10
5.419586
20
4.091782
0
SEQEND
0
POLYLINE
8
1
66
1
70
1
0
VERTEX
8
1
10
5.540199
20
6.045334
42
-0.170458
0
VERTEX
8
1
10
5.591461
20
5.290619
42
-0.071867
0
VERTEX
8
1
10
5.430618
20
4.908646
42
-0.817889
0
VERTEX
8
1
10
5.394989
20
4.934647
42
0.056354
0
VERTEX
8
1
10
5.534698
20
5.254242
0
VERTEX
8
1
10
5.565994
20
5.383942
42
0.146050
0
VERTEX
8
1
10
5.504646
20
6.013336
42
-0.030310
0
VERTEX
8
1
10
5.464180
20
6.100235
42
-0.766663
0
VERTEX
8
1
10
5.506332
20
6.110870
42
-0.029975
0
SEQEND
0
POLYLINE
8
1
66
1
70
1
0
VERTEX
8
1
10
4.790016
20
5.047546
42
-0.090594
0
VERTEX
8
1
10
4.690216
20
5.288406
42
-0.167980
0
VERTEX
8
1
10
4.749847
20
6.049271
42
-0.066688
0
VERTEX
8
1
10
4.860603
20
6.225464
42
-0.303368
0
VERTEX
8
1
10
5.203575
20
6.315018
42
-0.072914
0
VERTEX
8
1
10
5.326591
20
6.258240
42
-0.315652
0
VERTEX
8
1
10
5.302681
20
6.197159
42
-0.273163
0
VERTEX
8
1
10
5.276619
20
6.201019
42
0.148623
0
VERTEX
8
1
10
5.103203
20
6.240829
42
0.129654
0
VERTEX
8
1
10
5.021500
20
6.203552
42
0.187945
0
VERTEX
8
1
10
4.787933
20
5.819916
42
0.083222
0
VERTEX
8
1
10
4.776512
20
5.412445
42
0.188893
0
VERTEX
8
1
10
4.997635
20
5.028793
42
0.172257
0
VERTEX
8
1
10
5.227699
20
4.952103
0
VERTEX
8
1
10
5.234169
20
4.941177
42
0.137139
0
VERTEX
8
1
10
5.296082
20
4.830551
42
-0.313530
0
VERTEX
8
1
10
4.925049
20
4.885132
42
-0.078845
0
SEQEND
0
POLYLINE
8
1
66
1
70
1
0
VERTEX
8
1
10
5.276306
20
4.359238
42
-0.243770
0
VERTEX
8
1
10
4.839439
20
4.407227
42
-0.113294
0
VERTEX
8
1
10
4.601326
20
4.680725
0
VERTEX
8
1
10
4.575813
20
4.727631
0
VERTEX
8
1
10
4.551765
20
4.776474
42
-0.128290
0
VERTEX
8
1
10
4.392891
20
5.782318
42
-0.089894
0
VERTEX
8
1
10
4.546494
20
6.403946
42
-0.104231
0
VERTEX
8
1
10
4.751198
20
6.680542
42
-0.841104
0
VERTEX
8
1
10
4.775749
20
6.643646
42
0.121354
0
VERTEX
8
1
10
4.544670
20
6.286423
0
VERTEX
8
1
10
4.523247
20
6.225876
42
0.139767
0
VERTEX
8
1
10
4.503922
20
5.033188
42
0.092359
0
VERTEX
8
1
10
4.716644
20
4.587769
42
0.091214
0
VERTEX
8
1
10
4.891907
20
4.427750
0
VERTEX
8
1
10
4.956093
20
4.396774
42
0.168700
0
VERTEX
8
1
10
5.259399
20
4.400818
42
-0.934604
0
SEQEND
0
POLYLINE
8
1
66
1
70
1
0
VERTEX
8
1
10
5.170303
20
4.191605
0
VERTEX
8
1
10
5.181061
20
4.037994
42
-0.979988
0
VERTEX
8
1
10
5.136246
20
4.033981
0
VERTEX
8
1
10
5.125572
20
4.187576
42
-0.939901
0
SEQEND
0
POLYLINE
8
1
66
1
70
1
0
VERTEX
8
1
10
4.831665
20
4.102524
42
0.192554
0
VERTEX
8
1
10
4.831360
20
4.048904
0
VERTEX
8
1
10
4.359085
20
4.090652
0
VERTEX
8
1
10
4.318321
20
4.172195
0
VERTEX
8
1
10
4.316307
20
4.179947
0
VERTEX
8
1
10
4.298058
20
4.262756
0
VERTEX
8
1
10
4.255035
20
4.422729
0
VERTEX
8
1
10
4.183960
20
4.634201
0
VERTEX
8
1
10
4.081535
20
4.871506
0
VERTEX
8
1
10
3.944458
20
5.108963
0
VERTEX
8
1
10
3.769447
20
5.320953
0
VERTEX
8
1
10
3.553200
20
5.481781
0
VERTEX
8
1
10
3.378441
20
5.545319
0
VERTEX
8
1
10
3.323158
20
5.563873
0
VERTEX
8
1
10
3.316345
20
5.579712
0
VERTEX
8
1
10
3.344124
20
5.592834
0
VERTEX
8
1
10
3.392609
20
5.603256
42
-0.009160
0
VERTEX
8
1
10
3.610489
20
5.628052
42
-0.027447
0
VERTEX
8
1
10
4.069221
20
5.618347
0
VERTEX
8
1
10
4.123024
20
5.618347
42
-0.067564
0
VERTEX
8
1
10
4.136963
20
5.528397
0
VERTEX
8
1
10
4.226212
20
5.532959
0
VERTEX
8
1
10
4.227280
20
5.532684
42
0.014834
0
VERTEX
8
1
10
4.234192
20
5.417450
0
VERTEX
8
1
10
4.143723
20
5.407288
42
0.018839
0
VERTEX
8
1
10
4.164871
20
5.238525
0
VERTEX
8
1
10
4.254250
20
5.256424
42
0.012762
0
VERTEX
8
1
10
4.276535
20
5.143402
0
VERTEX
8
1
10
4.188210
20
5.119370
42
0.021611
0
VERTEX
8
1
10
4.232071
20
4.955414
0
VERTEX
8
1
10
4.318138
20
4.987244
42
0.015470
0
VERTEX
8
1
10
4.356216
20
4.879425
0
VERTEX
8
1
10
4.272247
20
4.841202
42
0.066732
0
VERTEX
8
1
10
4.359787
20
4.674210
0
VERTEX
8
1
10
4.414391
20
4.701523
0
VERTEX
8
1
10
4.416107
20
4.699677
0
VERTEX
8
1
10
4.484047
20
4.604584
0
VERTEX
8
1
10
4.442467
20
4.521118
0
VERTEX
8
1
10
4.484207
20
4.410095
0
VERTEX
8
1
10
4.538544
20
4.478012
0
VERTEX
8
1
10
4.540054
20
4.478912
0
VERTEX
8
1
10
4.608780
20
4.375259
42
0.027716
0
VERTEX
8
1
10
4.675941
20
4.307816
0
VERTEX
8
1
10
4.627525
20
4.242020
42
0.042105
0
VERTEX
8
1
10
4.741989
20
4.153793
0
VERTEX
8
1
10
4.780495
20
4.227203
42
0.033921
0
VERTEX
8
1
10
4.861679
20
4.182404
0
SEQEND
0
POLYLINE
8
1
66
1
70
1
0
VERTEX
8
1
10
3.419899
20
4.716507
0
VERTEX
8
1
10
3.455421
20
4.721436
42
-0.231187
0
VERTEX
8
1
10
3.917091
20
4.575974
42
-0.047983
0
VERTEX
8
1
10
3.994438
20
4.491364
42
-0.824425
0
VERTEX
8
1
10
3.956810
20
4.468231
42
0.189890
0
VERTEX
8
1
10
3.614784
20
4.676132
42
0.062745
0
VERTEX
8
1
10
3.418419
20
4.672623
42
-0.799103
0
SEQEND
0
POLYLINE
8
1
66
1
70
1
0
VERTEX
8
1
10
3.480904
20
4.767410
42
-0.504913
0
VERTEX
8
1
10
3.453751
20
4.791321
0
VERTEX
8
1
10
3.462372
20
4.892548
42
-0.938625
0
VERTEX
8
1
10
3.507286
20
4.892014
0
VERTEX
8
1
10
3.498169
20
4.784622
42
-0.294554
0
SEQEND
0
POLYLINE
8
1
66
1
70
1
0
VERTEX
8
1
10
3.787727
20
4.754562
42
-0.924935
0
VERTEX
8
1
10
3.746094
20
4.771301
0
VERTEX
8
1
10
3.773201
20
4.857574
42
-1.018426
0
VERTEX
8
1
10
3.815193
20
4.841202
0
VERTEX
8
1
10
3.789604
20
4.759689
0
SEQEND
0
POLYLINE
8
1
66
1
70
1
0
VERTEX
8
1
10
4.248451
20
3.783173
42
-0.499707
0
VERTEX
8
1
10
4.216553
20
3.799973
42
0.062337
0
VERTEX
8
1
10
4.047554
20
4.551819
42
0.088278
0
VERTEX
8
1
10
3.714806
20
5.131149
42
0.068286
0
VERTEX
8
1
10
3.504997
20
5.316040
0
VERTEX
8
1
10
3.440491
20
5.351639
42
0.206511
0
VERTEX
8
1
10
3.108475
20
5.358459
42
0.093684
0
VERTEX
8
1
10
2.841866
20
5.191025
42
-0.926831
0
VERTEX
8
1
10
2.818100
20
5.229416
42
-0.130421
0
VERTEX
8
1
10
3.177452
20
5.425415
42
-0.214304
0
VERTEX
8
1
10
3.555328
20
5.337234
0
VERTEX
8
1
10
3.592590
20
5.310013
42
-0.110810
0
VERTEX
8
1
10
3.996025
20
4.785339
42
-0.080826
0
VERTEX
8
1
10
4.245872
20
3.933487
0
VERTEX
8
1
10
4.258018
20
3.835449
0
VERTEX
8
1
10
4.274551
20
3.842072
42
-1.259076
0
VERTEX
8
1
10
4.284477
20
3.797638
42
-0.003943
0
SEQEND
0
POLYLINE
8
1
66
1
70
1
0
VERTEX
8
1
10
4.256691
20
6.069382
0
VERTEX
8
1
10
4.190239
20
6.088776
42
-0.405151
0
VERTEX
8
1
10
4.174728
20
6.115997
0
VERTEX
8
1
10
4.181519
20
6.142349
42
-1.089643
0
VERTEX
8
1
10
4.223900
20
6.125870
0
VERTEX
8
1
10
4.291374
20
6.106247
42
-0.390342
0
VERTEX
8
1
10
4.305710
20
6.079269
42
-0.009271
0
VERTEX
8
1
10
4.275528
20
5.958008
42
-0.291383
0
VERTEX
8
1
10
4.252441
20
5.950394
0
VERTEX
8
1
10
4.187164
20
5.964127
42
0.018342
0
VERTEX
8
1
10
4.169304
20
5.840607
0
VERTEX
8
1
10
4.171402
20
5.840134
0
VERTEX
8
1
10
4.239182
20
5.833542
42
-0.480566
0
VERTEX
8
1
10
4.256142
20
5.797073
42
-0.058763
0
VERTEX
8
1
10
4.248390
20
5.739822
42
-0.681835
0
VERTEX
8
1
10
4.208214
20
5.751617
0
VERTEX
8
1
10
4.210327
20
5.789551
0
VERTEX
8
1
10
4.205383
20
5.791672
0
VERTEX
8
1
10
4.143707
20
5.797592
42
-0.414276
0
VERTEX
8
1
10
4.122192
20
5.821106
42
-0.030652
0
VERTEX
8
1
10
4.149292
20
6.001572
42
-0.326964
0
VERTEX
8
1
10
4.173286
20
6.013107
0
VERTEX
8
1
10
4.240440
20
5.998917
42
-0.010630
0
SEQEND
0
POLYLINE
8
1
66
1
70
1
0
VERTEX
8
1
10
3.525803
20
6.382233
0
VERTEX
8
1
10
4.396194
20
6.377594
0
VERTEX
8
1
10
4.396194
20
6.294266
0
VERTEX
8
1
10
4.312859
20
6.322037
0
VERTEX
8
1
10
4.294327
20
6.247971
0
VERTEX
8
1
10
4.150803
20
6.257233
0
VERTEX
8
1
10
3.664688
20
6.257233
0
VERTEX
8
1
10
3.664688
20
5.687790
0
VERTEX
8
1
10
3.511917
20
5.826675
0
SEQEND
0
POLYLINE
8
1
66
1
70
1
0
VERTEX
8
1
10
3.459396
20
5.779678
42
-1.009352
0
VERTEX
8
1
10
3.462173
20
5.734756
0
VERTEX
8
1
10
3.317047
20
5.725677
42
-0.426803
0
VERTEX
8
1
10
3.290512
20
5.745392
0
VERTEX
8
1
10
3.290344
20
6.183594
42
-0.934869
0
VERTEX
8
1
10
3.335213
20
6.185715
0
VERTEX
8
1
10
3.335358
20
5.774521
0
VERTEX
8
1
10
3.337700
20
5.772064
0
SEQEND
0
POLYLINE
8
1
66
1
70
1
0
VERTEX
8
1
10
2.210999
20
6.405365
0
VERTEX
8
1
10
3.340637
20
6.386856
0
VERTEX
8
1
10
3.331383
20
6.275742
0
VERTEX
8
1
10
2.359161
20
6.294266
0
VERTEX
8
1
10
2.345245
20
4.680847
0
VERTEX
8
1
10
2.192467
20
4.666946
0
SEQEND
0
POLYLINE
8
1
66
1
70
1
0
VERTEX
8
1
10
2.490784
20
5.700409
42
0.007832
0
VERTEX
8
1
10
2.494476
20
5.249908
42
0.094672
0
VERTEX
8
1
10
2.519745
20
5.179947
42
-0.817056
0
VERTEX
8
1
10
2.480453
20
5.159866
42
-0.124192
0
VERTEX
8
1
10
2.447853
20
5.263336
42
-0.015678
0
VERTEX
8
1
10
2.455330
20
6.028778
42
-0.175167
0
VERTEX
8
1
10
2.507553
20
6.177078
42
-0.258788
0
VERTEX
8
1
10
2.579865
20
6.196274
0
VERTEX
8
1
10
3.129761
20
6.187057
42
-0.904970
0
VERTEX
8
1
10
3.130005
20
6.142258
0
VERTEX
8
1
10
2.571548
20
6.151413
42
0.422589
0
VERTEX
8
1
10
2.525917
20
6.128296
42
0.102914
0
VERTEX
8
1
10
2.501549
20
6.038895
42
0.019746
0
SEQEND
0
POLYLINE
8
1
66
1
70
1
0
VERTEX
8
1
10
2.338272
20
4.501953
42
-0.980149
0
VERTEX
8
1
10
2.339256
20
4.456985
0
VERTEX
8
1
10
2.033356
20
4.443939
0
VERTEX
8
1
10
2.020500
20
4.221619
42
-0.959262
0
VERTEX
8
1
10
1.975548
20
4.221527
0
VERTEX
8
1
10
1.989616
20
4.468552
42
-0.326977
0
VERTEX
8
1
10
2.008018
20
4.487717
0
SEQEND
0
POLYLINE
8
1
66
1
70
1
0
VERTEX
8
1
10
3.188599
20
5.603455
42
-0.934542
0
VERTEX
8
1
10
3.199371
20
5.559875
0
VERTEX
8
1
10
3.181259
20
5.555603
0
VERTEX
8
1
10
3.061203
20
5.512070
0
VERTEX
8
1
10
2.955170
20
5.446945
0
VERTEX
8
1
10
2.862305
20
5.363876
0
VERTEX
8
1
10
2.781769
20
5.266418
42
0.081121
0
VERTEX
8
1
10
2.565742
20
4.805634
42
0.048655
0
VERTEX
8
1
10
2.463562
20
4.277130
42
-1.039182
0
VERTEX
8
1
10
2.420868
20
4.297012
42
-0.081115
0
VERTEX
8
1
10
2.617760
20
5.073776
42
-0.107701
0
VERTEX
8
1
10
2.897011
20
5.457870
42
-0.122875
0
SEQEND
0
POLYLINE
8
1
66
1
0
VERTEX
8
1
10
2.669708
20
4.054535
0
VERTEX
8
1
10
2.669388
20
4.054688
0
VERTEX
8
1
10
2.669708
20
4.054535
0
SEQEND
0
POLYLINE
8
1
66
1
70
1
0
VERTEX
8
1
10
2.724808
20
4.317688
0
VERTEX
8
1
10
2.653580
20
4.345169
0
VERTEX
8
1
10
2.630043
20
4.278061
42
-0.872001
0
VERTEX
8
1
10
2.587952
20
4.292801
42
-0.051431
0
VERTEX
8
1
10
2.625168
20
4.390472
42
-0.274791
0
VERTEX
8
1
10
2.647621
20
4.395660
0
VERTEX
8
1
10
2.719032
20
4.368149
0
VERTEX
8
1
10
2.721062
20
4.367615
42
-0.013219
0
VERTEX
8
1
10
2.752266
20
4.439911
42
0.013635
0
VERTEX
8
1
10
2.675797
20
4.479248
42
-0.306334
0
VERTEX
8
1
10
2.672447
20
4.504227
42
-0.043579
0
VERTEX
8
1
10
2.769768
20
4.672409
42
-0.306421
0
VERTEX
8
1
10
2.794914
20
4.674469
0
VERTEX
8
1
10
2.856865
20
4.633484
0
VERTEX
8
1
10
2.861313
20
4.631454
42
-0.021176
0
VERTEX
8
1
10
2.907738
20
4.693909
0
VERTEX
8
1
10
2.905663
20
4.696915
0
VERTEX
8
1
10
2.846771
20
4.745834
42
-0.379909
0
VERTEX
8
1
10
2.845390
20
4.775711
42
-0.043932
0
VERTEX
8
1
10
2.983536
20
4.915787
42
-0.336110
0
VERTEX
8
1
10
3.010368
20
4.910919
0
VERTEX
8
1
10
3.060074
20
4.853760
0
VERTEX
8
1
10
3.063004
20
4.853500
42
-0.020353
0
VERTEX
8
1
10
3.124901
20
4.900574
0
VERTEX
8
1
10
3.083191
20
4.962570
42
-0.515259
0
VERTEX
8
1
10
3.094505
20
5.000916
42
-0.044419
0
VERTEX
8
1
10
3.261086
20
5.090698
42
-0.335632
0
VERTEX
8
1
10
3.285355
20
5.078339
0
VERTEX
8
1
10
3.316063
20
5.009384
0
VERTEX
8
1
10
3.319572
20
5.008331
42
-0.008017
0
VERTEX
8
1
10
3.390053
20
5.034576
0
VERTEX
8
1
10
3.389923
20
5.041092
0
VERTEX
8
1
10
3.369911
20
5.105820
42
-0.449341
0
VERTEX
8
1
10
3.383934
20
5.137009
42
-0.048416
0
VERTEX
8
1
10
3.569260
20
5.177582
42
-0.862213
0
VERTEX
8
1
10
3.566238
20
5.133118
42
0.032304
0
VERTEX
8
1
10
3.418808
20
5.100006
0
VERTEX
8
1
10
3.441399
20
5.026917
42
-0.523701
0
VERTEX
8
1
10
3.413963
20
4.995026
42
0.021911
0
VERTEX
8
1
10
3.309105
20
4.955200
42
-0.329386
0
VERTEX
8
1
10
3.285385
20
4.967682
0
VERTEX
8
1
10
3.254684
20
5.036621
0
VERTEX
8
1
10
3.253471
20
5.038544
42
0.029229
0
VERTEX
8
1
10
3.131599
20
4.971375
0
VERTEX
8
1
10
3.173950
20
4.908371
42
-0.432981
0
VERTEX
8
1
10
3.168259
20
4.875900
42
0.023123
0
VERTEX
8
1
10
3.069092
20
4.800293
42
-0.327969
0
VERTEX
8
1
10
3.042755
20
4.805115
0
VERTEX
8
1
10
2.993446
20
4.861816
0
VERTEX
8
1
10
2.991524
20
4.863586
42
0.033826
0
VERTEX
8
1
10
2.895134
20
4.764053
0
VERTEX
8
1
10
2.953941
20
4.715363
42
-0.371761
0
VERTEX
8
1
10
2.958969
20
4.686417
42
0.015602
0
VERTEX
8
1
10
2.882141
20
4.583237
42
-0.331262
0
VERTEX
8
1
10
2.855377
20
4.580536
0
VERTEX
8
1
10
2.792999
20
4.621826
0
VERTEX
8
1
10
2.789597
20
4.621948
42
0.024674
0
VERTEX
8
1
10
2.723221
20
4.504929
0
VERTEX
8
1
10
2.727821
20
4.502121
0
VERTEX
8
1
10
2.793663
20
4.470108
42
-0.484803
0
VERTEX
8
1
10
2.796394
20
4.428467
42
0.014518
0
VERTEX
8
1
10
2.752541
20
4.326019
42
-0.361366
0
SEQEND
0
POLYLINE
8
1
66
1
70
1
0
VERTEX
8
1
10
3.448364
20
2.133270
0
VERTEX
8
1
10
3.465294
20
2.235031
42
-0.955467
0
VERTEX
8
1
10
3.509262
20
2.225677
0
VERTEX
8
1
10
3.492462
20
2.124146
42
-1.050093
0
SEQEND
0
POLYLINE
8
1
66
1
70
1
0
VERTEX
8
1
10
3.598068
20
2.392654
42
-0.949556
0
VERTEX
8
1
10
3.612244
20
2.349991
42
-0.239756
0
VERTEX
8
1
10
3.144356
20
2.429123
0
VERTEX
8
1
10
3.111603
20
2.455383
42
-0.122001
0
VERTEX
8
1
10
2.843697
20
2.864395
42
-0.129901
0
VERTEX
8
1
10
2.757256
20
3.819580
42
-0.102690
0
VERTEX
8
1
10
2.957962
20
4.392029
42
-0.094883
0
VERTEX
8
1
10
3.149818
20
4.599976
42
-0.866506
0
VERTEX
8
1
10
3.171341
20
4.560989
42
0.129860
0
VERTEX
8
1
10
2.910339
20
4.206375
0
VERTEX
8
1
10
2.886749
20
4.147552
42
0.139993
0
VERTEX
8
1
10
2.824158
20
3.078598
42
0.094289
0
VERTEX
8
1
10
3.020721
20
2.623428
42
0.127632
0
VERTEX
8
1
10
3.259628
20
2.412445
42
0.171737
0
SEQEND
0
POLYLINE
8
1
66
1
70
1
0
VERTEX
8
1
10
3.158302
20
3.040054
42
-0.098419
0
VERTEX
8
1
10
3.068840
20
3.294815
42
-0.174170
0
VERTEX
8
1
10
3.175026
20
4.032272
0
VERTEX
8
1
10
3.202751
20
4.077957
0
VERTEX
8
1
10
3.232536
20
4.120407
0
VERTEX
8
1
10
3.264183
20
4.159439
42
-0.310491
0
VERTEX
8
1
10
3.617889
20
4.254883
42
-0.076721
0
VERTEX
8
1
10
3.750496
20
4.190720
42
-0.170933
0
VERTEX
8
1
10
3.671425
20
4.161072
0
VERTEX
8
1
10
3.659729
20
4.165527
42
0.295260
0
VERTEX
8
1
10
3.404053
20
4.161606
42
0.183016
0
VERTEX
8
1
10
3.198074
20
3.879318
0
VERTEX
8
1
10
3.185989
20
3.835114
42
0.088605
0
VERTEX
8
1
10
3.174225
20
3.333313
42
0.148484
0
VERTEX
8
1
10
3.347069
20
2.981430
42
0.200934
0
VERTEX
8
1
10
3.561691
20
2.889526
42
0.289016
0
VERTEX
8
1
10
3.649773
20
2.798859
0
VERTEX
8
1
10
3.666496
20
2.793793
42
-0.284015
0
VERTEX
8
1
10
3.317062
20
2.844345
42
-0.095772
0
SEQEND
0
POLYLINE
8
1
66
1
70
1
0
VERTEX
8
1
10
3.785904
20
2.134872
42
-0.999439
0
VERTEX
8
1
10
3.741653
20
2.126740
0
VERTEX
8
1
10
3.711075
20
2.292892
42
-0.999451
0
VERTEX
8
1
10
3.755325
20
2.301025
0
SEQEND
0
POLYLINE
8
1
66
1
70
1
0
VERTEX
8
1
10
3.892654
20
3.717789
42
-0.072397
0
VERTEX
8
1
10
3.909294
20
3.468048
0
VERTEX
8
1
10
3.891884
20
3.448151
42
0.280332
0
VERTEX
8
1
10
3.771736
20
3.277725
42
0.168594
0
VERTEX
8
1
10
3.808205
20
3.176559
42
-0.142258
0
VERTEX
8
1
10
3.677917
20
3.022400
0
VERTEX
8
1
10
3.666222
20
3.017090
0
VERTEX
8
1
10
3.652405
20
3.023590
42
0.101380
0
VERTEX
8
1
10
3.518059
20
3.112778
42
0.300080
0
VERTEX
8
1
10
3.453529
20
3.102463
0
VERTEX
8
1
10
3.444038
20
3.078262
0
VERTEX
8
1
10
3.443153
20
3.040863
0
VERTEX
8
1
10
3.419075
20
3.057877
42
-0.145764
0
VERTEX
8
1
10
3.297134
20
3.258896
0
VERTEX
8
1
10
3.293884
20
3.280350
0
VERTEX
8
1
10
3.296539
20
3.293335
0
VERTEX
8
1
10
3.310349
20
3.286041
42
0.452941
0
VERTEX
8
1
10
3.405060
20
3.310577
0
VERTEX
8
1
10
3.416771
20
3.332901
0
VERTEX
8
1
10
3.427643
20
3.361923
0
VERTEX
8
1
10
3.444420
20
3.369278
0
VERTEX
8
1
10
3.504814
20
3.355759
42
0.415932
0
VERTEX
8
1
10
3.526100
20
3.237671
0
VERTEX
8
1
10
3.549355
20
3.232864
42
0.501557
0
VERTEX
8
1
10
3.617355
20
3.368484
0
VERTEX
8
1
10
3.608612
20
3.387146
42
-0.066058
0
VERTEX
8
1
10
3.636482
20
3.518478
42
0.637446
0
VERTEX
8
1
10
3.674286
20
3.660187
42
0.416918
0
VERTEX
8
1
10
3.613998
20
3.653244
0
VERTEX
8
1
10
3.561142
20
3.718765
42
0.156669
0
VERTEX
8
1
10
3.572067
20
3.821671
0
VERTEX
8
1
10
3.563347
20
3.836380
42
0.851216
0
VERTEX
8
1
10
3.448730
20
3.744873
0
VERTEX
8
1
10
3.452934
20
3.733871
42
-0.116507
0
VERTEX
8
1
10
3.395897
20
3.651306
42
0.188077
0
VERTEX
8
1
10
3.352715
20
3.715698
42
0.380500
0
VERTEX
8
1
10
3.312614
20
3.702103
42
0.228403
0
VERTEX
8
1
10
3.290359
20
3.605469
42
0.188057
0
VERTEX
8
1
10
3.354813
20
3.562714
42
0.100094
0
VERTEX
8
1
10
3.362114
20
3.472595
42
-0.163855
0
VERTEX
8
1
10
3.257027
20
3.475891
0
VERTEX
8
1
10
3.247139
20
3.479950
42
-0.189900
0
VERTEX
8
1
10
3.329140
20
3.891251
0
VERTEX
8
1
10
3.356323
20
3.919189
42
0.249885
0
VERTEX
8
1
10
3.458008
20
3.941788
42
0.108546
0
VERTEX
8
1
10
3.554199
20
4.061478
0
VERTEX
8
1
10
3.568047
20
4.082169
0
VERTEX
8
1
10
3.586441
20
4.089615
0
VERTEX
8
1
10
3.609634
20
4.088470
42
-0.093896
0
VERTEX
8
1
10
3.769066
20
3.997482
42
0.216735
0
VERTEX
8
1
10
3.734268
20
3.811111
42
0.463392
0
VERTEX
8
1
10
3.875801
20
3.763596
42
-0.179908
0
SEQEND
0
POLYLINE
8
1
66
1
70
1
0
VERTEX
8
1
10
3.535110
20
3.466919
42
-1.064764
0
VERTEX
8
1
10
3.496635
20
3.491882
0
VERTEX
8
1
10
3.505577
20
3.529266
42
0.324496
0
VERTEX
8
1
10
3.469955
20
3.607147
42
-0.824938
0
VERTEX
8
1
10
3.494392
20
3.643951
42
-0.229320
0
VERTEX
8
1
10
3.548424
20
3.568665
42
-0.153909
0
SEQEND
0
POLYLINE
8
1
66
1
70
1
0
VERTEX
8
1
10
4.255394
20
3.517685
42
-0.059925
0
VERTEX
8
1
10
4.166290
20
2.988327
42
-0.110907
0
VERTEX
8
1
10
3.925934
20
2.548721
0
VERTEX
8
1
10
3.872375
20
2.495880
42
-0.999872
0
VERTEX
8
1
10
3.842308
20
2.529358
42
0.107303
0
VERTEX
8
1
10
4.069458
20
2.856827
0
VERTEX
8
1
10
4.102814
20
2.940369
42
0.071037
0
VERTEX
8
1
10
4.211166
20
3.522568
42
-0.854922
0
SEQEND
0
POLYLINE
8
1
66
1
70
1
0
VERTEX
8
1
10
3.993279
20
2.199829
0
VERTEX
8
1
10
3.885582
20
2.379349
0
VERTEX
8
1
10
3.964676
20
2.454422
0
VERTEX
8
1
10
4.057434
20
2.296585
0
SEQEND
0
POLYLINE
8
1
66
1
70
1
0
VERTEX
8
1
10
4.287575
20
2.210999
42
-1.002828
0
VERTEX
8
1
10
4.281303
20
2.166428
0
VERTEX
8
1
10
4.203712
20
2.177353
0
VERTEX
8
1
10
4.199211
20
2.177582
0
VERTEX
8
1
10
4.080902
20
2.072571
42
-0.927606
0
VERTEX
8
1
10
4.049919
20
2.105057
0
VERTEX
8
1
10
4.176575
20
2.217651
42
-0.226863
0
VERTEX
8
1
10
4.194923
20
2.224045
0
SEQEND
0
POLYLINE
8
1
66
1
70
1
0
VERTEX
8
1
10
4.242393
20
2.498886
0
VERTEX
8
1
10
4.099693
20
2.661011
0
VERTEX
8
1
10
4.147194
20
2.759171
0
VERTEX
8
1
10
4.307701
20
2.609177
0
SEQEND
0
POLYLINE
8
1
66
1
70
1
0
VERTEX
8
1
10
4.233406
20
2.983505
0
VERTEX
8
1
10
4.273277
20
3.123245
0
VERTEX
8
1
10
4.396324
20
3.058243
0
VERTEX
8
1
10
4.369850
20
2.944656
0
SEQEND
0
POLYLINE
8
1
66
1
70
1
0
VERTEX
8
1
10
4.393196
20
3.467178
42
-0.142693
0
VERTEX
8
1
10
4.417686
20
3.710449
42
-0.420473
0
VERTEX
8
1
10
4.463905
20
3.735352
42
-0.188245
0
VERTEX
8
1
10
4.508080
20
3.642731
42
-0.137378
0
VERTEX
8
1
10
4.489632
20
3.394897
42
-0.351903
0
VERTEX
8
1
10
4.444336
20
3.360306
0
VERTEX
8
1
10
4.434875
20
3.365555
42
-0.161860
0
SEQEND
0
POLYLINE
8
1
66
1
70
1
0
VERTEX
8
1
10
4.489502
20
2.542664
0
VERTEX
8
1
10
4.483406
20
2.468262
42
-0.093459
0
VERTEX
8
1
10
4.481140
20
2.460175
0
VERTEX
8
1
10
4.393372
20
2.331879
42
-0.928276
0
VERTEX
8
1
10
4.354584
20
2.354477
42
-0.001896
0
VERTEX
8
1
10
4.439072
20
2.477997
0
VERTEX
8
1
10
4.444496
20
2.541626
42
-0.961688
0
SEQEND
0
POLYLINE
8
1
66
1
70
1
0
VERTEX
8
1
10
4.656090
20
2.904526
42
-0.422630
0
VERTEX
8
1
10
4.643448
20
2.874847
0
VERTEX
8
1
10
4.566406
20
2.844971
0
VERTEX
8
1
10
4.514046
20
2.695145
42
-0.913102
0
VERTEX
8
1
10
4.471077
20
2.707901
0
VERTEX
8
1
10
4.526680
20
2.867645
42
-0.228390
0
VERTEX
8
1
10
4.539604
20
2.882919
0
VERTEX
8
1
10
4.626938
20
2.916718
42
-0.409043
0
SEQEND
0
POLYLINE
8
1
66
1
70
1
0
VERTEX
8
1
10
4.693108
20
3.227631
42
-0.280444
0
VERTEX
8
1
10
4.702042
20
3.206039
0
VERTEX
8
1
10
4.677986
20
3.050476
42
-0.999753
0
VERTEX
8
1
10
4.633499
20
3.057358
0
VERTEX
8
1
10
4.655472
20
3.199417
0
VERTEX
8
1
10
4.571800
20
3.260742
42
-1.000471
0
VERTEX
8
1
10
4.598404
20
3.297043
0
SEQEND
0
POLYLINE
8
1
66
1
70
1
0
VERTEX
8
1
10
5.747841
20
3.418625
42
-0.933760
0
VERTEX
8
1
10
5.751236
20
3.373840
0
VERTEX
8
1
10
4.665222
20
3.364349
42
-0.973874
0
VERTEX
8
1
10
4.662979
20
3.409302
0
SEQEND
0
POLYLINE
8
1
66
1
70
1
0
VERTEX
8
1
10
7.342354
20
3.207016
0
VERTEX
8
1
10
6.943001
20
3.197693
42
-0.974704
0
VERTEX
8
1
10
6.940750
20
3.242615
0
VERTEX
8
1
10
7.340103
20
3.251938
42
-0.974353
0
SEQEND
0
POLYLINE
8
1
66
1
70
1
0
VERTEX
8
1
10
7.305801
20
2.862930
42
-0.951205
0
VERTEX
8
1
10
7.303596
20
2.818054
0
VERTEX
8
1
10
7.026352
20
2.827301
42
-0.960325
0
VERTEX
8
1
10
7.023598
20
2.872330
0
SEQEND
0
POLYLINE
8
1
66
1
70
1
0
VERTEX
8
1
10
7.472801
20
2.783783
42
-0.992374
0
VERTEX
8
1
10
7.430832
20
2.767426
0
VERTEX
8
1
10
7.328506
20
3.092743
42
-0.948304
0
VERTEX
8
1
10
7.370377
20
3.109100
0
SEQEND
0
POLYLINE
8
1
66
1
70
1
0
VERTEX
8
1
10
7.905487
20
3.233002
42
-0.971772
0
VERTEX
8
1
10
7.943161
20
3.208450
42
-0.267222
0
VERTEX
8
1
10
7.632027
20
3.040695
42
-0.962664
0
VERTEX
8
1
10
7.640457
20
3.085175
42
0.261031
0
SEQEND
0
POLYLINE
8
1
66
1
70
1
0
VERTEX
8
1
10
8.766060
20
3.251587
42
-0.947976
0
VERTEX
8
1
10
8.760132
20
3.207016
42
-0.003566
0
VERTEX
8
1
10
4.638504
20
3.792023
42
-0.016166
0
VERTEX
8
1
10
4.406334
20
3.833572
42
-0.324130
0
VERTEX
8
1
10
4.349571
20
3.916443
42
-0.826535
0
VERTEX
8
1
10
4.393730
20
3.910889
42
0.307689
0
VERTEX
8
1
10
4.428619
20
3.873642
0
VERTEX
8
1
10
4.465614
20
3.865921
0
VERTEX
8
1
10
4.531433
20
3.854401
42
0.004987
0
VERTEX
8
1
10
6.575790
20
3.556351
42
0.000852
0
SEQEND
0
POLYLINE
8
1
66
1
70
1
0
VERTEX
8
1
10
8.775887
20
3.479782
42
-0.945356
0
VERTEX
8
1
10
8.772827
20
3.434967
0
VERTEX
8
1
10
4.967804
20
3.980942
42
-0.942440
0
VERTEX
8
1
10
4.972878
20
4.025589
0
SEQEND
0
POLYLINE
8
1
66
1
70
1
0
VERTEX
8
1
10
8.930885
20
3.710190
42
-0.979432
0
VERTEX
8
1
10
8.927231
20
3.665314
42
-0.006984
0
VERTEX
8
1
10
7.176460
20
3.880768
42
-0.038743
0
VERTEX
8
1
10
7.055878
20
3.904617
42
-0.251463
0
VERTEX
8
1
10
7.042961
20
3.929459
42
-0.032745
0
VERTEX
8
1
10
7.000015
20
4.412827
42
-0.015911
0
VERTEX
8
1
10
6.975616
20
6.259918
42
-1.131167
0
VERTEX
8
1
10
7.020134
20
6.246902
0
VERTEX
8
1
10
7.019943
20
6.240341
0
VERTEX
8
1
10
7.019707
20
6.233780
42
0.145372
0
VERTEX
8
1
10
7.050850
20
6.237946
0
VERTEX
8
1
10
7.108376
20
6.236786
42
-0.959914
0
VERTEX
8
1
10
7.111626
20
6.191879
0
VERTEX
8
1
10
7.057312
20
6.192963
42
-0.102537
0
VERTEX
8
1
10
7.018913
20
6.187866
42
0.015837
0
VERTEX
8
1
10
7.053596
20
4.253220
42
0.025137
0
VERTEX
8
1
10
7.084961
20
3.948074
0
VERTEX
8
1
10
7.137672
20
3.932480
0
VERTEX
8
1
10
7.226311
20
3.918579
42
0.007225
0
SEQEND
0
POLYLINE
8
1
66
1
70
1
0
VERTEX
8
1
10
8.956139
20
4.085388
42
-1.023147
0
VERTEX
8
1
10
8.955444
20
4.040298
42
-0.006581
0
VERTEX
8
1
10
7.331345
20
4.182922
42
-0.048333
0
VERTEX
8
1
10
7.250160
20
4.196396
42
-0.235452
0
VERTEX
8
1
10
7.239517
20
4.213470
42
-0.032338
0
VERTEX
8
1
10
7.218857
20
6.203568
0
VERTEX
8
1
10
7.223373
20
6.254257
0
VERTEX
8
1
10
7.221931
20
6.288666
42
-0.179563
0
VERTEX
8
1
10
7.257408
20
6.557114
0
VERTEX
8
1
10
7.267326
20
6.571716
0
VERTEX
8
1
10
7.281075
20
7.438019
42
-0.947994
0
VERTEX
8
1
10
7.325981
20
7.439941
0
VERTEX
8
1
10
7.312241
20
6.564835
42
-0.229672
0
VERTEX
8
1
10
7.298729
20
6.537949
42
0.178493
0
VERTEX
8
1
10
7.264290
20
6.309540
42
-0.131294
0
VERTEX
8
1
10
7.268478
20
6.252914
42
0.018206
0
VERTEX
8
1
10
7.245865
20
5.775879
42
0.022352
0
VERTEX
8
1
10
7.272583
20
4.364243
0
VERTEX
8
1
10
7.284912
20
4.234314
42
0.009552
0
VERTEX
8
1
10
8.397812
20
4.131058
0
VERTEX
8
1
10
8.676956
20
4.107956
0
SEQEND
0
POLYLINE
8
1
66
1
70
1
0
VERTEX
8
1
10
9.020233
20
3.406403
42
-0.970050
0
VERTEX
8
1
10
8.975639
20
3.412277
42
-0.184261
0
VERTEX
8
1
10
9.932205
20
5.260437
42
-0.039220
0
VERTEX
8
1
10
9.992088
20
5.306717
42
-0.969507
0
VERTEX
8
1
10
10.004150
20
5.261337
42
0.048694
0
VERTEX
8
1
10
9.718452
20
4.984146
42
0.152686
0
SEQEND
0
POLYLINE
8
1
66
1
70
1
0
VERTEX
8
1
10
9.467888
20
3.724060
42
-0.999828
0
VERTEX
8
1
10
9.472610
20
3.679291
0
VERTEX
8
1
10
9.208717
20
3.651535
42
-0.999829
0
VERTEX
8
1
10
9.203995
20
3.696274
0
SEQEND
0
POLYLINE
8
1
66
1
70
1
0
VERTEX
8
1
10
11.233429
20
0.712448
42
-0.899978
0
VERTEX
8
1
10
11.189346
20
0.704758
0
VERTEX
8
1
10
11.160820
20
0.903015
42
-0.928933
0
VERTEX
8
1
10
11.204987
20
0.911011
0
SEQEND
0
POLYLINE
8
1
66
1
70
1
0
VERTEX
8
1
10
11.350784
20
1.132904
42
-0.952414
0
VERTEX
8
1
10
11.365273
20
1.090393
0
VERTEX
8
1
10
11.316727
20
1.076797
42
-0.159658
0
VERTEX
8
1
10
10.682037
20
1.104416
42
-0.133141
0
VERTEX
8
1
10
10.169128
20
1.509048
0
VERTEX
8
1
10
10.132065
20
1.558350
0
VERTEX
8
1
10
10.097244
20
1.608261
42
-0.171584
0
VERTEX
8
1
10
9.766289
20
2.998718
42
-0.106834
0
VERTEX
8
1
10
9.976395
20
3.716110
42
-0.110356
0
VERTEX
8
1
10
10.299736
20
4.081024
42
-0.817304
0
VERTEX
8
1
10
10.320091
20
4.041885
42
0.132850
0
VERTEX
8
1
10
9.950623
20
3.564636
42
0.098085
0
VERTEX
8
1
10
9.801399
20
2.819550
42
0.149979
0
VERTEX
8
1
10
10.121361
20
1.653229
42
0.093730
0
VERTEX
8
1
10
10.492950
20
1.260101
42
0.130334
0
VERTEX
8
1
10
10.945801
20
1.087311
42
0.090846
0
SEQEND
0
POLYLINE
8
1
66
1
70
1
0
VERTEX
8
1
10
10.978096
20
3.543152
42
0.143745
0
VERTEX
8
1
10
10.803047
20
3.464600
42
0.206812
0
VERTEX
8
1
10
10.487198
20
2.937164
42
0.081541
0
VERTEX
8
1
10
10.498024
20
2.493347
42
0.308699
0
VERTEX
8
1
10
11.133339
20
1.898682
42
0.043164
0
VERTEX
8
1
10
11.262413
20
1.894379
42
0.162584
0
VERTEX
8
1
10
11.372711
20
1.743561
42
-0.260425
0
VERTEX
8
1
10
10.767731
20
1.800125
42
-0.117429
0
VERTEX
8
1
10
10.428619
20
2.175293
42
-0.157929
0
VERTEX
8
1
10
10.319298
20
2.983276
42
-0.153513
0
VERTEX
8
1
10
10.603531
20
3.527313
42
-0.219119
0
VERTEX
8
1
10
11.065140
20
3.650986
42
-0.078139
0
VERTEX
8
1
10
11.317497
20
3.576462
42
-0.369078
0
VERTEX
8
1
10
11.281586
20
3.496048
42
-0.204118
0
VERTEX
8
1
10
11.245499
20
3.499237
42
0.101771
0
VERTEX
8
1
10
10.997749
20
3.545029
0
SEQEND
0
POLYLINE
8
1
66
1
70
1
0
VERTEX
8
1
10
11.568634
20
2.203079
42
-0.153467
0
VERTEX
8
1
10
11.372971
20
1.998032
0
VERTEX
8
1
10
11.359138
20
1.993347
42
0.105496
0
VERTEX
8
1
10
11.095718
20
2.111435
42
0.208395
0
VERTEX
8
1
10
11.009315
20
2.093536
0
VERTEX
8
1
10
10.995377
20
2.069931
0
VERTEX
8
1
10
10.991440
20
2.035583
0
VERTEX
8
1
10
10.994560
20
1.995575
42
-0.106329
0
VERTEX
8
1
10
10.756638
20
2.214615
42
-0.124221
0
VERTEX
8
1
10
10.713966
20
2.330154
0
VERTEX
8
1
10
10.733490
20
2.323074
42
0.251288
0
VERTEX
8
1
10
10.864662
20
2.330719
42
0.151329
0
VERTEX
8
1
10
10.920616
20
2.423065
0
VERTEX
8
1
10
10.935150
20
2.450943
0
VERTEX
8
1
10
11.053566
20
2.437790
42
0.427274
0
VERTEX
8
1
10
11.078842
20
2.296890
42
0.314626
0
VERTEX
8
1
10
11.166237
20
2.282776
0
VERTEX
8
1
10
11.192055
20
2.294327
42
0.457165
0
VERTEX
8
1
10
11.241241
20
2.462585
42
-0.229528
0
VERTEX
8
1
10
11.222191
20
2.538162
42
-0.058855
0
VERTEX
8
1
10
11.248795
20
2.674118
42
0.241586
0
VERTEX
8
1
10
11.346931
20
2.758743
42
0.530517
0
VERTEX
8
1
10
11.231140
20
2.878693
42
0.145897
0
VERTEX
8
1
10
11.192558
20
2.854568
0
VERTEX
8
1
10
11.095337
20
2.937714
42
0.167657
0
VERTEX
8
1
10
11.104378
20
3.068207
42
0.284199
0
VERTEX
8
1
10
11.030670
20
3.117783
42
0.311584
0
VERTEX
8
1
10
10.891426
20
3.052002
42
0.353160
0
VERTEX
8
1
10
10.913467
20
2.952667
0
VERTEX
8
1
10
10.913467
20
2.942139
42
-0.121078
0
VERTEX
8
1
10
10.830620
20
2.828323
42
0.203366
0
VERTEX
8
1
10
10.749352
20
2.909515
42
0.367516
0
VERTEX
8
1
10
10.674431
20
2.869141
42
0.229141
0
VERTEX
8
1
10
10.660484
20
2.756210
42
0.183909
0
VERTEX
8
1
10
10.775803
20
2.701584
42
0.128739
0
VERTEX
8
1
10
10.799355
20
2.581711
0
VERTEX
8
1
10
10.795692
20
2.574783
42
-0.132546
0
VERTEX
8
1
10
10.608826
20
2.577560
42
-0.200125
0
VERTEX
8
1
10
10.650467
20
3.086899
0
VERTEX
8
1
10
10.692596
20
3.152832
0
VERTEX
8
1
10
10.726524
20
3.186356
42
0.229794
0
VERTEX
8
1
10
10.909271
20
3.240768
42
0.106796
0
VERTEX
8
1
10
11.046310
20
3.422424
0
VERTEX
8
1
10
11.065384
20
3.438095
0
VERTEX
8
1
10
11.091881
20
3.445297
0
VERTEX
8
1
10
11.124153
20
3.445374
42
-0.091609
0
VERTEX
8
1
10
11.399971
20
3.341034
0
VERTEX
8
1
10
11.400261
20
3.339706
42
0.173397
0
VERTEX
8
1
10
11.350113
20
3.138443
42
0.351167
0
VERTEX
8
1
10
11.484344
20
3.011566
42
0.173612
0
VERTEX
8
1
10
11.606079
20
3.032822
0
VERTEX
8
1
10
11.614662
20
3.032272
0
VERTEX
8
1
10
11.623276
20
3.021118
42
-0.110414
0
VERTEX
8
1
10
11.706810
20
2.623825
0
VERTEX
8
1
10
11.676590
20
2.605865
42
0.184403
0
VERTEX
8
1
10
11.518600
20
2.447495
42
0.273890
0
VERTEX
8
1
10
11.545906
20
2.268112
0
VERTEX
8
1
10
11.578438
20
2.232162
0
SEQEND
0
POLYLINE
8
1
66
1
70
1
0
VERTEX
8
1
10
11.074722
20
2.596756
42
-0.999018
0
VERTEX
8
1
10
11.032433
20
2.612137
0
VERTEX
8
1
10
11.039246
20
2.633804
0
VERTEX
8
1
10
11.043526
20
2.654343
42
0.381898
0
VERTEX
8
1
10
10.970497
20
2.781052
42
-0.945318
0
VERTEX
8
1
10
10.996414
20
2.818268
42
-0.396846
0
VERTEX
8
1
10
11.083313
20
2.624466
0
SEQEND
0
POLYLINE
8
1
66
1
70
1
0
VERTEX
8
1
10
11.676384
20
0.811813
42
-0.984357
0
VERTEX
8
1
10
11.634750
20
0.794632
0
VERTEX
8
1
10
11.560120
20
1.018341
42
-0.938787
0
VERTEX
8
1
10
11.601517
20
1.035751
0
SEQEND
0
POLYLINE
8
1
66
1
70
1
0
VERTEX
8
1
10
11.617752
20
3.372406
42
-0.195820
0
VERTEX
8
1
10
11.821976
20
2.491653
0
VERTEX
8
1
10
11.807251
20
2.409592
42
-0.093458
0
VERTEX
8
1
10
11.568336
20
1.851364
42
-0.866419
0
VERTEX
8
1
10
11.534630
20
1.880478
42
0.105497
0
VERTEX
8
1
10
11.777191
20
2.496735
42
0.205138
0
VERTEX
8
1
10
11.560730
20
3.373245
42
-0.962358
0
VERTEX
8
1
10
11.602150
20
3.392487
42
-0.023405
0
SEQEND
0
POLYLINE
8
1
66
1
70
1
0
VERTEX
8
1
10
12.025833
20
0.923904
0
VERTEX
8
1
10
11.822098
20
1.155365
0
VERTEX
8
1
10
11.942467
20
1.266479
0
VERTEX
8
1
10
12.118401
20
1.062790
0
SEQEND
0
POLYLINE
8
1
66
1
70
1
0
VERTEX
8
1
10
10.724106
20
4.268600
42
-0.104988
0
VERTEX
8
1
10
11.233826
20
4.273346
42
-0.154708
0
VERTEX
8
1
10
11.813545
20
3.916534
42
-0.131299
0
VERTEX
8
1
10
12.215080
20
3.092789
0
VERTEX
8
1
10
12.228333
20
3.024139
42
-0.102393
0
VERTEX
8
1
10
12.189270
20
2.026688
0
VERTEX
8
1
10
12.164146
20
1.940369
42
-0.137726
0
VERTEX
8
1
10
11.771278
20
1.316177
42
-1.001297
0
VERTEX
8
1
10
11.741692
20
1.350052
42
0.129486
0
VERTEX
8
1
10
12.100876
20
1.894043
0
VERTEX
8
1
10
12.125984
20
1.969376
42
0.135310
0
VERTEX
8
1
10
12.139076
20
3.213974
42
0.136605
0
VERTEX
8
1
10
11.697960
20
3.969818
0
VERTEX
8
1
10
11.654831
20
4.007980
42
0.215296
0
VERTEX
8
1
10
10.877335
20
4.246689
42
0.018480
0
VERTEX
8
1
10
10.728569
20
4.224701
42
-0.819147
0
SEQEND
0
POLYLINE
8
1
66
1
70
1
0
VERTEX
8
1
10
10.819489
20
4.366318
42
-0.667905
0
VERTEX
8
1
10
10.781082
20
4.382233
0
VERTEX
8
1
10
10.781082
20
4.521118
42
-0.999682
0
VERTEX
8
1
10
10.826080
20
4.521118
0
VERTEX
8
1
10
10.826080
20
4.382233
42
-0.200533
0
SEQEND
0
POLYLINE
8
1
66
1
70
1
0
VERTEX
8
1
10
11.309830
20
4.372131
42
-1.027849
0
VERTEX
8
1
10
11.270157
20
4.393387
0
VERTEX
8
1
10
11.382568
20
4.589859
42
-0.974665
0
VERTEX
8
1
10
11.419716
20
4.564423
0
SEQEND
0
POLYLINE
8
1
66
1
70
1
0
VERTEX
8
1
10
11.646179
20
4.201675
0
VERTEX
8
1
10
11.766541
20
4.368347
0
VERTEX
8
1
10
11.877647
20
4.294266
0
VERTEX
8
1
10
11.748024
20
4.127609
0
SEQEND
0
POLYLINE
8
1
66
1
70
1
0
VERTEX
8
1
10
12.377663
20
2.581299
0
VERTEX
8
1
10
12.349884
20
2.803528
0
VERTEX
8
1
10
12.599884
20
2.803528
0
VERTEX
8
1
10
12.627663
20
2.609085
0
SEQEND
0
POLYLINE
8
1
66
1
70
1
0
VERTEX
8
1
10
12.572105
20
2.136856
0
VERTEX
8
1
10
12.544327
20
1.979446
0
VERTEX
8
1
10
12.312843
20
2.016479
0
VERTEX
8
1
10
12.359161
20
2.210922
0
SEQEND
0
POLYLINE
8
1
66
1
70
1
0
VERTEX
8
1
10
12.532730
20
3.807419
42
-0.872439
0
VERTEX
8
1
10
12.494148
20
3.785095
0
VERTEX
8
1
10
12.409943
20
3.911316
0
VERTEX
8
1
10
12.406975
20
3.917618
0
VERTEX
8
1
10
12.392723
20
4.015823
42
-1.048303
0
VERTEX
8
1
10
12.436981
20
4.024231
0
VERTEX
8
1
10
12.449730
20
3.934982
0
VERTEX
8
1
10
12.451279
20
3.930420
0
VERTEX
8
1
10
12.529984
20
3.812332
0
SEQEND
0
POLYLINE
8
1
66
1
70
1
0
VERTEX
8
1
10
12.460999
20
3.423904
0
VERTEX
8
1
10
12.498055
20
3.266479
0
VERTEX
8
1
10
12.285065
20
3.183151
0
VERTEX
8
1
10
12.238762
20
3.359085
0
SEQEND
0
POLYLINE
8
1
66
1
70
1
0
VERTEX
8
1
10
12.062843
20
3.692413
0
VERTEX
8
1
10
11.979507
20
3.831299
0
VERTEX
8
1
10
12.146179
20
3.960922
0
VERTEX
8
1
10
12.257286
20
3.840561
0
SEQEND
0
POLYLINE
8
1
66
1
70
1
0
VERTEX
8
1
10
12.225052
20
4.186401
42
-0.943974
0
VERTEX
8
1
10
12.189247
20
4.159286
0
VERTEX
8
1
10
12.073219
20
4.313919
0
VERTEX
8
1
10
12.069092
20
4.318069
0
VERTEX
8
1
10
11.982956
20
4.318115
42
-0.948695
0
VERTEX
8
1
10
11.982941
20
4.363037
0
VERTEX
8
1
10
12.080200
20
4.363068
42
-0.222953
0
VERTEX
8
1
10
12.098061
20
4.355637
0
SEQEND
0
POLYLINE
8
1
66
1
70
1
0
VERTEX
8
1
10
12.396179
20
1.359085
0
VERTEX
8
1
10
12.136940
20
1.562790
0
VERTEX
8
1
10
12.201736
20
1.701675
0
VERTEX
8
1
10
12.488777
20
1.516479
0
SEQEND
0
POLYLINE
8
1
66
1
70
1
0
VERTEX
8
1
10
12.659416
20
1.506607
0
VERTEX
8
1
10
12.659416
20
1.410004
42
-0.120714
0
VERTEX
8
1
10
12.656868
20
1.399612
0
VERTEX
8
1
10
12.529541
20
1.215485
42
-0.907861
0
VERTEX
8
1
10
12.491913
20
1.239761
0
VERTEX
8
1
10
12.614410
20
1.417282
0
VERTEX
8
1
10
12.614410
20
1.507172
42
-1.015847
0
SEQEND
0
POLYLINE
8
1
66
1
70
1
0
VERTEX
8
1
10
12.740265
20
3.410233
0
VERTEX
8
1
10
12.616104
20
3.479462
42
-1.009500
0
VERTEX
8
1
10
12.638420
20
3.518555
0
VERTEX
8
1
10
12.772484
20
3.443771
42
-0.207347
0
VERTEX
8
1
10
12.783638
20
3.429764
0
VERTEX
8
1
10
12.815857
20
3.253159
42
-0.976459
0
VERTEX
8
1
10
12.771790
20
3.244095
0
VERTEX
8
1
10
12.742416
20
3.405365
0
SEQEND
0
POLYLINE
8
1
66
1
70
1
0
VERTEX
8
1
10
12.855270
20
2.945633
0
VERTEX
8
1
10
12.895180
20
2.719467
42
-0.940282
0
VERTEX
8
1
10
12.851494
20
2.709000
0
VERTEX
8
1
10
12.809120
20
2.948257
42
-0.168180
0
VERTEX
8
1
10
12.811790
20
2.962784
0
VERTEX
8
1
10
12.924019
20
3.117340
42
-0.942977
0
VERTEX
8
1
10
12.962303
20
3.093811
0
VERTEX
8
1
10
12.858795
20
2.951141
0
SEQEND
0
POLYLINE
8
1
66
1
70
1
0
VERTEX
8
1
10
12.700333
20
2.479050
42
-0.999801
0
VERTEX
8
1
10
12.720467
20
2.519302
0
VERTEX
8
1
10
12.887115
20
2.435974
42
-0.305907
0
VERTEX
8
1
10
12.899475
20
2.413971
0
VERTEX
8
1
10
12.881561
20
2.199799
42
-0.999310
0
VERTEX
8
1
10
12.836716
20
2.203552
0
VERTEX
8
1
10
12.853355
20
2.402542
0
SEQEND
0
POLYLINE
8
1
66
1
70
1
0
VERTEX
8
1
10
12.946617
20
1.999786
42
-1.033251
0
VERTEX
8
1
10
12.964714
20
1.958572
0
VERTEX
8
1
10
12.840691
20
1.908966
0
VERTEX
8
1
10
12.835579
20
1.906448
0
VERTEX
8
1
10
12.768898
20
1.693314
42
-0.962855
0
VERTEX
8
1
10
12.726555
20
1.708389
0
VERTEX
8
1
10
12.796188
20
1.931183
42
-0.197899
0
VERTEX
8
1
10
12.807487
20
1.944061
0
SEQEND
0
POLYLINE
8
1
66
1
70
1
0
VERTEX
8
1
10
13.203613
20
2.856491
0
VERTEX
8
1
10
13.210197
20
2.759201
42
-1.034450
0
VERTEX
8
1
10
13.165535
20
2.753006
42
0.006763
0
VERTEX
8
1
10
13.158714
20
2.853317
0
VERTEX
8
1
10
13.152382
20
2.853317
0
VERTEX
8
1
10
13.079628
20
2.846375
42
-0.346853
0
VERTEX
8
1
10
13.057442
20
2.863953
42
0.012242
0
VERTEX
8
1
10
13.034508
20
3.037048
42
-0.353602
0
VERTEX
8
1
10
13.052773
20
3.058670
0
VERTEX
8
1
10
13.125343
20
3.070892
0
VERTEX
8
1
10
13.129005
20
3.071823
42
0.016172
0
VERTEX
8
1
10
13.085541
20
3.265793
0
VERTEX
8
1
10
13.081284
20
3.265778
0
VERTEX
8
1
10
13.009911
20
3.246216
42
-0.412498
0
VERTEX
8
1
10
12.982727
20
3.262756
42
-0.005948
0
VERTEX
8
1
10
12.930962
20
3.432465
42
-0.259613
0
VERTEX
8
1
10
12.944084
20
3.449997
0
VERTEX
8
1
10
13.012253
20
3.474274
0
VERTEX
8
1
10
13.017639
20
3.476593
42
0.020477
0
VERTEX
8
1
10
12.939529
20
3.660538
0
VERTEX
8
1
10
12.937180
20
3.660065
0
VERTEX
8
1
10
12.869720
20
3.627670
42
-0.424656
0
VERTEX
8
1
10
12.839294
20
3.638870
42
0.002581
0
VERTEX
8
1
10
12.757103
20
3.794128
42
-0.280637
0
VERTEX
8
1
10
12.766823
20
3.815720
0
VERTEX
8
1
10
12.834167
20
3.854965
42
0.025793
0
VERTEX
8
1
10
12.721390
20
4.022186
0
VERTEX
8
1
10
12.658852
20
3.975601
42
-0.363937
0
VERTEX
8
1
10
12.630096
20
3.978821
42
0.010907
0
VERTEX
8
1
10
12.517456
20
4.114548
42
-0.312240
0
VERTEX
8
1
10
12.521080
20
4.139893
0
VERTEX
8
1
10
12.579681
20
4.192261
42
0.024524
0
VERTEX
8
1
10
12.433769
20
4.333633
0
VERTEX
8
1
10
12.384575
20
4.276932
42
-0.427102
0
VERTEX
8
1
10
12.352119
20
4.273056
42
0.017808
0
VERTEX
8
1
10
12.215271
20
4.379059
42
-0.312993
0
VERTEX
8
1
10
12.211769
20
4.404526
42
-0.003342
0
VERTEX
8
1
10
12.256638
20
4.468048
0
VERTEX
8
1
10
12.254898
20
4.470856
42
0.035593
0
VERTEX
8
1
10
12.081604
20
4.573975
0
VERTEX
8
1
10
12.048309
20
4.509155
42
-0.518258
0
VERTEX
8
1
10
12.009888
20
4.500046
42
0.017134
0
VERTEX
8
1
10
11.855652
20
4.568130
42
-0.333593
0
VERTEX
8
1
10
11.850571
20
4.595078
0
VERTEX
8
1
10
11.877060
20
4.664032
42
0.029413
0
VERTEX
8
1
10
11.679398
20
4.721161
42
0.033861
0
VERTEX
8
1
10
11.659950
20
4.638901
42
-0.359982
0
VERTEX
8
1
10
11.630920
20
4.630585
42
0.016244
0
VERTEX
8
1
10
11.460754
20
4.657562
42
-0.286898
0
VERTEX
8
1
10
11.450188
20
4.679031
0
VERTEX
8
1
10
11.457237
20
4.752487
0
VERTEX
8
1
10
11.456726
20
4.754547
42
0.034132
0
VERTEX
8
1
10
11.252693
20
4.757278
0
VERTEX
8
1
10
11.255630
20
4.683334
42
-0.469792
0
VERTEX
8
1
10
11.229332
20
4.659454
42
0.011571
0
VERTEX
8
1
10
11.057953
20
4.646729
42
-0.334443
0
VERTEX
8
1
10
11.040222
20
4.667694
0
VERTEX
8
1
10
11.031555
20
4.741531
42
0.024352
0
VERTEX
8
1
10
10.831154
20
4.706909
0
VERTEX
8
1
10
10.831390
20
4.703979
0
VERTEX
8
1
10
10.848564
20
4.633438
42
-0.372009
0
VERTEX
8
1
10
10.835190
20
4.607285
42
0.013289
0
VERTEX
8
1
10
10.661057
20
4.558105
42
-0.257717
0
VERTEX
8
1
10
10.642921
20
4.570038
0
VERTEX
8
1
10
10.616272
20
4.645340
42
0.025482
0
VERTEX
8
1
10
10.427597
20
4.565018
0
VERTEX
8
1
10
10.463234
20
4.496887
42
-0.407659
0
VERTEX
8
1
10
10.453308
20
4.467041
42
0.016898
0
VERTEX
8
1
10
10.299240
20
4.378632
42
-0.259375
0
VERTEX
8
1
10
10.278786
20
4.386810
0
VERTEX
8
1
10
10.234566
20
4.451584
42
0.029768
0
VERTEX
8
1
10
10.072952
20
4.325180
0
VERTEX
8
1
10
10.127113
20
4.267136
42
-0.356276
0
VERTEX
8
1
10
10.125496
20
4.238754
42
0.022575
0
VERTEX
8
1
10
10.004730
20
4.114059
42
-0.320760
0
VERTEX
8
1
10
9.978378
20
4.113358
0
VERTEX
8
1
10
9.918175
20
4.164078
42
0.033285
0
VERTEX
8
1
10
9.796570
20
4.000076
0
VERTEX
8
1
10
9.862862
20
3.959152
42
-0.372966
0
VERTEX
8
1
10
9.869446
20
3.930466
42
0.021157
0
VERTEX
8
1
10
9.783493
20
3.778305
42
-0.338399
0
VERTEX
8
1
10
9.756615
20
3.773163
0
VERTEX
8
1
10
9.689270
20
3.806076
0
VERTEX
8
1
10
9.686172
20
3.803528
42
0.027668
0
VERTEX
8
1
10
9.609528
20
3.620621
0
VERTEX
8
1
10
9.683281
20
3.595276
42
-0.403831
0
VERTEX
8
1
10
9.696083
20
3.566742
42
0.015876
0
VERTEX
8
1
10
9.644646
20
3.400452
42
-0.339943
0
VERTEX
8
1
10
9.618576
20
3.391037
0
VERTEX
8
1
10
9.524193
20
3.415192
42
-0.958267
0
VERTEX
8
1
10
9.532120
20
3.459427
0
VERTEX
8
1
10
9.609375
20
3.439850
42
-0.011812
0
VERTEX
8
1
10
9.646156
20
3.560410
0
VERTEX
8
1
10
9.572433
20
3.585724
42
-0.361410
0
VERTEX
8
1
10
9.558655
20
3.610962
42
-0.038618
0
VERTEX
8
1
10
9.661751
20
3.853165
42
-0.326606
0
VERTEX
8
1
10
9.688156
20
3.856689
0
VERTEX
8
1
10
9.756424
20
3.823349
0
VERTEX
8
1
10
9.759178
20
3.827255
0
VERTEX
8
1
10
9.784035
20
3.874252
0
VERTEX
8
1
10
9.818314
20
3.932648
0
VERTEX
8
1
10
9.815063
20
3.935837
0
VERTEX
8
1
10
9.752769
20
3.974213
42
-0.417369
0
VERTEX
8
1
10
9.746201
20
4.005585
42
-0.047258
0
VERTEX
8
1
10
9.903732
20
4.215332
42
-0.319677
0
VERTEX
8
1
10
9.929794
20
4.213196
0
VERTEX
8
1
10
9.986488
20
4.165253
0
VERTEX
8
1
10
9.988846
20
4.164047
0
VERTEX
8
1
10
10.040993
20
4.219849
0
VERTEX
8
1
10
10.077148
20
4.254715
0
VERTEX
8
1
10
10.023460
20
4.311722
42
-0.429775
0
VERTEX
8
1
10
10.036224
20
4.352692
42
-0.048291
0
VERTEX
8
1
10
10.237930
20
4.505157
42
-0.260286
0
VERTEX
8
1
10
10.258301
20
4.496841
0
VERTEX
8
1
10
10.302345
20
4.432175
42
-0.016582
0
VERTEX
8
1
10
10.412460
20
4.496536
0
VERTEX
8
1
10
10.377090
20
4.563995
42
-0.407860
0
VERTEX
8
1
10
10.386063
20
4.594193
42
-0.045228
0
VERTEX
8
1
10
10.630852
20
4.696228
42
-0.332485
0
VERTEX
8
1
10
10.652161
20
4.679352
0
VERTEX
8
1
10
10.676781
20
4.608871
42
-0.018122
0
VERTEX
8
1
10
10.798691
20
4.644058
0
VERTEX
8
1
10
10.798546
20
4.648666
0
VERTEX
8
1
10
10.781395
20
4.719147
42
-0.416913
0
VERTEX
8
1
10
10.798668
20
4.745987
42
-0.031096
0
VERTEX
8
1
10
11.054367
20
4.788971
42
-0.344155
0
VERTEX
8
1
10
11.073647
20
4.769058
0
VERTEX
8
1
10
11.082329
20
4.695175
0
VERTEX
8
1
10
11.084503
20
4.693802
0
VERTEX
8
1
10
11.118675
20
4.697311
0
VERTEX
8
1
10
11.209747
20
4.703583
0
VERTEX
8
1
10
11.206749
20
4.781281
42
-0.363457
0
VERTEX
8
1
10
11.226006
20
4.802826
42
-0.051502
0
VERTEX
8
1
10
11.491104
20
4.795486
42
-0.322598
0
VERTEX
8
1
10
11.504387
20
4.772781
0
VERTEX
8
1
10
11.497238
20
4.697144
42
-0.015342
0
VERTEX
8
1
10
11.623871
20
4.678101
0
VERTEX
8
1
10
11.639343
20
4.750778
42
-0.433517
0
VERTEX
8
1
10
11.666313
20
4.769852
42
-0.051998
0
VERTEX
8
1
10
11.922096
20
4.692917
42
-0.258886
0
VERTEX
8
1
10
11.928040
20
4.671829
0
VERTEX
8
1
10
11.899742
20
4.597610
42
-0.019027
0
VERTEX
8
1
10
12.017464
20
4.547623
0
VERTEX
8
1
10
12.051697
20
4.614243
42
-0.406824
0
VERTEX
8
1
10
12.081253
20
4.624954
42
-0.042342
0
VERTEX
8
1
10
12.306931
20
4.488815
42
-0.326368
0
VERTEX
8
1
10
12.307716
20
4.462234
0
VERTEX
8
1
10
12.265694
20
4.403107
0
VERTEX
8
1
10
12.263618
20
4.399536
0
VERTEX
8
1
10
12.323563
20
4.354828
0
VERTEX
8
1
10
12.363785
20
4.321793
0
VERTEX
8
1
10
12.414688
20
4.380264
42
-0.493579
0
VERTEX
8
1
10
12.453842
20
4.375854
42
-0.036912
0
VERTEX
8
1
10
12.632454
20
4.199219
42
-0.319321
0
VERTEX
8
1
10
12.626564
20
4.173752
0
VERTEX
8
1
10
12.571083
20
4.124329
0
VERTEX
8
1
10
12.570274
20
4.121964
0
VERTEX
8
1
10
12.587677
20
4.102676
0
VERTEX
8
1
10
12.650818
20
4.025864
0
VERTEX
8
1
10
12.713562
20
4.072556
42
-0.360428
0
VERTEX
8
1
10
12.742058
20
4.069458
42
-0.034413
0
VERTEX
8
1
10
12.887306
20
3.852127
42
-0.326685
0
VERTEX
8
1
10
12.876930
20
3.827728
0
VERTEX
8
1
10
12.813889
20
3.791077
0
VERTEX
8
1
10
12.810692
20
3.788818
42
-0.013185
0
VERTEX
8
1
10
12.870148
20
3.678040
42
-0.017027
0
VERTEX
8
1
10
12.948723
20
3.713501
42
-0.258831
0
VERTEX
8
1
10
12.968269
20
3.703552
42
-0.031730
0
VERTEX
8
1
10
13.069542
20
3.464203
42
-0.323539
0
VERTEX
8
1
10
13.055489
20
3.441895
0
VERTEX
8
1
10
12.987488
20
3.417740
0
VERTEX
8
1
10
12.981827
20
3.415314
0
VERTEX
8
1
10
13.003738
20
3.350555
0
VERTEX
8
1
10
13.020027
20
3.295624
0
VERTEX
8
1
10
13.091789
20
3.315308
42
-0.432889
0
VERTEX
8
1
10
13.122086
20
3.301300
42
-0.029447
0
VERTEX
8
1
10
13.177719
20
3.051910
42
-0.351437
0
VERTEX
8
1
10
13.158974
20
3.030930
0
VERTEX
8
1
10
13.085190
20
3.018509
0
VERTEX
8
1
10
13.082909
20
3.016022
42
-0.011065
0
VERTEX
8
1
10
13.100258
20
2.893478
0
VERTEX
8
1
10
13.175720
20
2.900772
42
-0.415026
0
VERTEX
8
1
10
13.200989
20
2.880753
0
SEQEND
0
POLYLINE
8
1
66
1
70
1
0
VERTEX
8
1
10
13.321991
20
4.136459
0
VERTEX
8
1
10
13.178581
20
3.646118
0
VERTEX
8
1
10
13.164696
20
3.590607
0
VERTEX
8
1
10
12.998550
20
3.922852
0
VERTEX
8
1
10
12.998459
20
3.925247
42
-0.016307
0
VERTEX
8
1
10
13.093613
20
4.195938
0
VERTEX
8
1
10
13.108261
20
4.206848
42
0.043619
0
SEQEND
0
POLYLINE
8
1
66
1
70
1
0
VERTEX
8
1
10
13.328712
20
4.221893
42
-0.041617
0
VERTEX
8
1
10
13.216164
20
4.257629
42
-0.473359
0
VERTEX
8
1
10
13.217781
20
4.298462
42
0.183869
0
VERTEX
8
1
10
13.216415
20
4.445343
42
0.288981
0
VERTEX
8
1
10
13.184868
20
4.455872
42
0.090584
0
VERTEX
8
1
10
13.094383
20
4.420242
42
-0.836951
0
VERTEX
8
1
10
13.079430
20
4.462006
42
-0.153985
0
VERTEX
8
1
10
13.203178
20
4.500198
42
-0.363324
0
VERTEX
8
1
10
13.270477
20
4.426041
42
-0.132998
0
VERTEX
8
1
10
13.262695
20
4.288605
42
0.088427
0
VERTEX
8
1
10
13.403778
20
4.259888
42
0.124429
0
VERTEX
8
1
10
13.428528
20
4.412872
0
VERTEX
8
1
10
13.421631
20
4.438873
42
0.274724
0
VERTEX
8
1
10
13.365234
20
4.479172
42
-0.909845
0
VERTEX
8
1
10
13.387238
20
4.519089
42
-0.262366
0
VERTEX
8
1
10
13.463478
20
4.455399
0
VERTEX
8
1
10
13.472824
20
4.420135
42
-0.140199
0
VERTEX
8
1
10
13.439110
20
4.230499
42
-0.246728
0
VERTEX
8
1
10
13.372231
20
4.215042
42
-0.035986
0
SEQEND
0
POLYLINE
8
1
66
1
70
1
0
VERTEX
8
1
10
13.430008
20
4.093765
42
-0.963985
0
VERTEX
8
1
10
13.472923
20
4.107391
0
VERTEX
8
1
10
13.566704
20
3.666931
42
-0.903981
0
VERTEX
8
1
10
13.522835
20
3.657913
0
SEQEND
0
POLYLINE
8
1
66
1
70
1
0
VERTEX
8
1
10
13.773430
20
3.210144
42
-1.007354
0
VERTEX
8
1
10
13.777840
20
3.165375
0
VERTEX
8
1
10
13.472115
20
3.137573
42
-1.024999
0
VERTEX
8
1
10
13.469543
20
3.182526
0
SEQEND
0
POLYLINE
8
1
66
1
70
1
0
VERTEX
8
1
10
13.818367
20
2.744034
42
-0.041285
0
VERTEX
8
1
10
13.802483
20
2.807968
0
VERTEX
8
1
10
13.814552
20
2.809372
42
0.000480
0
SEQEND
0
POLYLINE
8
1
66
1
70
1
0
VERTEX
8
1
10
14.011108
20
3.877808
42
-0.131013
0
VERTEX
8
1
10
13.818398
20
3.808182
0
VERTEX
8
1
10
13.812317
20
3.808670
42
-0.155235
0
VERTEX
8
1
10
13.595779
20
3.927017
0
VERTEX
8
1
10
13.573250
20
3.959579
0
VERTEX
8
1
10
13.560455
20
3.994919
42
0.038344
0
VERTEX
8
1
10
13.521835
20
4.193222
42
-0.834173
0
VERTEX
8
1
10
13.565636
20
4.199631
42
-0.043333
0
VERTEX
8
1
10
13.604424
20
4.004562
42
0.194299
0
VERTEX
8
1
10
13.686386
20
3.908157
42
0.106988
0
VERTEX
8
1
10
13.825340
20
3.852966
42
0.100802
0
VERTEX
8
1
10
13.990929
20
3.917496
42
-0.859523
0
SEQEND
0
POLYLINE
8
1
66
1
70
1
0
VERTEX
8
1
10
15.506523
20
1.440094
42
-1.029243
0
VERTEX
8
1
10
15.461639
20
1.436783
0
VERTEX
8
1
10
15.447762
20
1.591217
42
-0.908847
0
VERTEX
8
1
10
15.492416
20
1.594391
0
SEQEND
0
POLYLINE
8
1
66
1
70
1
0
VERTEX
8
1
10
15.880875
20
1.513031
42
-0.950931
0
VERTEX
8
1
10
15.838081
20
1.499283
0
VERTEX
8
1
10
15.782837
20
1.678650
42
-1.083780
0
VERTEX
8
1
10
15.825432
20
1.693283
0
SEQEND
0
POLYLINE
8
1
66
1
70
1
0
VERTEX
8
1
10
15.886978
20
2.867828
42
-0.208730
0
VERTEX
8
1
10
15.710167
20
2.434982
42
-0.102349
0
VERTEX
8
1
10
15.440628
20
2.262238
0
VERTEX
8
1
10
15.345940
20
2.229080
0
VERTEX
8
1
10
15.238777
20
2.201675
42
-0.264146
0
VERTEX
8
1
10
14.678329
20
2.553299
42
-0.047405
0
VERTEX
8
1
10
14.603020
20
2.720200
0
VERTEX
8
1
10
14.611031
20
2.728500
42
0.033177
0
VERTEX
8
1
10
14.812996
20
2.729126
42
0.103894
0
VERTEX
8
1
10
15.027016
20
2.457413
42
0.174209
0
VERTEX
8
1
10
15.227348
20
2.384506
42
0.227043
0
VERTEX
8
1
10
15.617241
20
2.525955
42
0.087267
0
VERTEX
8
1
10
15.828995
20
2.843506
0
VERTEX
8
1
10
15.845490
20
2.868347
0
VERTEX
8
1
10
15.886177
20
2.868347
42
-0.873372
0
SEQEND
0
POLYLINE
8
1
66
1
70
1
0
VERTEX
8
1
10
16.020515
20
3.757553
0
VERTEX
8
1
10
15.978828
20
2.992126
42
-0.345496
0
VERTEX
8
1
10
15.960472
20
2.971222
42
-0.002643
0
VERTEX
8
1
10
14.479454
20
2.901810
42
-0.052991
0
VERTEX
8
1
10
14.197884
20
2.937759
42
-0.014719
0
VERTEX
8
1
10
13.958702
20
2.987930
42
-0.254906
0
VERTEX
8
1
10
13.947762
20
3.006332
0
VERTEX
8
1
10
13.989571
20
3.426651
42
-0.962036
0
VERTEX
8
1
10
14.034393
20
3.422867
0
VERTEX
8
1
10
13.994995
20
3.028503
0
VERTEX
8
1
10
13.996872
20
3.024460
42
0.030586
0
VERTEX
8
1
10
14.430779
20
2.947495
0
VERTEX
8
1
10
14.452347
20
2.946426
0
VERTEX
8
1
10
14.480392
20
2.946838
42
0.004637
0
VERTEX
8
1
10
15.935089
20
3.016510
0
VERTEX
8
1
10
15.975571
20
3.758621
42
-0.963495
0
SEQEND
0
POLYLINE
8
1
66
1
70
1
0
VERTEX
8
1
10
16.164688
20
1.715561
0
VERTEX
8
1
10
16.025803
20
1.854446
0
VERTEX
8
1
10
16.136917
20
1.951675
0
VERTEX
8
1
10
16.275803
20
1.812790
0
SEQEND
0
POLYLINE
8
1
66
1
70
1
0
VERTEX
8
1
10
16.791542
20
4.234802
0
VERTEX
8
1
10
16.068336
20
4.206955
42
-0.988442
0
VERTEX
8
1
10
16.066109
20
4.251907
0
VERTEX
8
1
10
16.789330
20
4.279739
42
-0.967111
0
SEQEND
0
POLYLINE
8
1
66
1
70
1
0
VERTEX
8
1
10
16.456360
20
2.062790
0
VERTEX
8
1
10
16.289688
20
2.187790
0
VERTEX
8
1
10
16.386917
20
2.298904
0
VERTEX
8
1
10
16.539688
20
2.201675
0
SEQEND
0
POLYLINE
8
1
66
1
70
1
0
VERTEX
8
1
10
16.642700
20
2.150940
42
-0.948473
0
VERTEX
8
1
10
16.687057
20
2.143631
0
VERTEX
8
1
10
16.673218
20
2.019012
42
-0.091194
0
VERTEX
8
1
10
16.670937
20
2.011047
0
VERTEX
8
1
10
16.571701
20
1.854996
42
-0.941792
0
VERTEX
8
1
10
16.533981
20
1.879410
0
VERTEX
8
1
10
16.627892
20
2.027023
0
VERTEX
8
1
10
16.629372
20
2.031952
0
SEQEND
0
POLYLINE
8
1
66
1
70
1
0
VERTEX
8
1
10
16.664688
20
2.562790
0
VERTEX
8
1
10
16.470245
20
2.632233
0
VERTEX
8
1
10
16.511917
20
2.785004
0
VERTEX
8
1
10
16.706360
20
2.715561
0
SEQEND
0
POLYLINE
8
1
66
1
70
1
0
VERTEX
8
1
10
16.979324
20
2.570862
42
-0.975242
0
VERTEX
8
1
10
16.990051
20
2.527191
0
VERTEX
8
1
10
16.851578
20
2.489426
0
VERTEX
8
1
10
16.847588
20
2.486725
0
VERTEX
8
1
10
16.783081
20
2.319046
42
-1.010774
0
VERTEX
8
1
10
16.740921
20
2.334763
0
VERTEX
8
1
10
16.810860
20
2.516525
42
-0.215601
0
VERTEX
8
1
10
16.824821
20
2.528748
0
SEQEND
0
POLYLINE
8
1
66
1
70
1
0
VERTEX
8
1
10
16.944603
20
2.914566
0
VERTEX
8
1
10
16.859940
20
2.975037
42
-1.029717
0
VERTEX
8
1
10
16.887230
20
3.010864
0
VERTEX
8
1
10
16.983658
20
2.941986
42
-0.282322
0
VERTEX
8
1
10
16.992409
20
2.920013
0
VERTEX
8
1
10
16.949913
20
2.722290
42
-0.897200
0
VERTEX
8
1
10
16.906204
20
2.731873
0
VERTEX
8
1
10
16.943832
20
2.907990
0
SEQEND
0
POLYLINE
8
1
66
1
70
1
0
VERTEX
8
1
10
17.192894
20
3.154770
42
-0.973588
0
VERTEX
8
1
10
17.193214
20
3.109741
42
0.020321
0
VERTEX
8
1
10
16.672028
20
3.081146
42
-0.295479
0
VERTEX
8
1
10
16.534042
20
3.162537
42
-0.148304
0
VERTEX
8
1
10
16.517204
20
3.200912
0
VERTEX
8
1
10
16.558807
20
3.757324
42
-0.982922
0
VERTEX
8
1
10
16.603844
20
3.757858
0
VERTEX
8
1
10
16.562645
20
3.206894
42
0.269366
0
VERTEX
8
1
10
16.656815
20
3.125977
42
-0.016265
0
SEQEND
0
POLYLINE
8
1
66
1
70
1
0
VERTEX
8
1
10
17.427834
20
3.960281
42
-0.991888
0
VERTEX
8
1
10
17.429680
20
3.915314
42
-0.005734
0
VERTEX
8
1
10
16.514847
20
3.874908
42
-0.347141
0
VERTEX
8
1
10
16.484978
20
3.916107
0
VERTEX
8
1
10
16.484901
20
3.932465
42
-0.095998
0
VERTEX
8
1
10
16.537567
20
4.092468
42
-0.794511
0
VERTEX
8
1
10
16.574921
20
4.069550
42
0.096117
0
VERTEX
8
1
10
16.529030
20
3.920486
0
VERTEX
8
1
10
16.550171
20
3.919266
42
0.001736
0
SEQEND
0
ENDSEC
0
EOF
