0
SECTION
2
HEADER
9
$EXTMIN
10
0.793522
20
1.167488
9
$EXTMAX
10
28.500507
20
8.215393
0
ENDSEC
0
SECTION
2
TABLES
0
TABLE
2
LTYPE
70
1
0
LTYPE
2
0
70
0
3
Solid Line
72
65
73
0
40
0.0
0
ENDTAB
0
TABLE
2
LAYER
70
1
0
LAYER
2
1
70
0
62
7
6
0
0
ENDTAB
0
ENDSEC
0
SECTION
2
BLOCKS
0
ENDSEC
0
SECTION
2
ENTITIES
0
POLYLINE
8
1
66
1
70
1
0
VERTEX
8
1
10
22.139484
20
4.555557
0
VERTEX
8
1
10
22.597286
20
4.582458
0
VERTEX
8
1
10
22.597286
20
6.187126
0
VERTEX
8
1
10
22.594540
20
6.191757
0
VERTEX
8
1
10
21.777737
20
6.232162
42
0.012516
0
VERTEX
8
1
10
21.628811
20
6.176918
42
0.079651
0
VERTEX
8
1
10
21.415504
20
6.214996
0
VERTEX
8
1
10
20.695614
20
6.215019
0
VERTEX
8
1
10
20.695614
20
6.206985
0
VERTEX
8
1
10
20.192345
20
6.231850
0
VERTEX
8
1
10
20.090778
20
6.197693
0
VERTEX
8
1
10
20.048279
20
6.227661
0
VERTEX
8
1
10
19.090649
20
6.227676
0
VERTEX
8
1
10
19.090649
20
6.212570
42
0.063250
0
VERTEX
8
1
10
18.880421
20
6.285194
0
VERTEX
8
1
10
18.842438
20
6.288757
0
VERTEX
8
1
10
18.796265
20
6.292595
42
0.019336
0
VERTEX
8
1
10
17.916534
20
6.303032
42
0.205367
0
VERTEX
8
1
10
17.238556
20
5.973701
42
0.063970
0
VERTEX
8
1
10
17.115051
20
5.780342
0
VERTEX
8
1
10
17.089268
20
5.753082
42
0.169051
0
VERTEX
8
1
10
16.570431
20
6.183533
0
VERTEX
8
1
10
16.480942
20
6.216248
0
VERTEX
8
1
10
16.477486
20
6.216301
0
VERTEX
8
1
10
15.440876
20
6.201073
42
-0.006851
0
VERTEX
8
1
10
15.350853
20
6.170746
42
0.106182
0
VERTEX
8
1
10
15.027821
20
6.232635
42
0.014976
0
VERTEX
8
1
10
14.731930
20
6.227684
0
VERTEX
8
1
10
14.036953
20
6.227669
0
VERTEX
8
1
10
13.995342
20
6.199226
42
0.065806
0
VERTEX
8
1
10
13.812866
20
6.227615
0
VERTEX
8
1
10
13.013500
20
6.227684
0
VERTEX
8
1
10
12.985779
20
6.227737
42
0.097620
0
VERTEX
8
1
10
12.685993
20
6.187607
42
0.082936
0
VERTEX
8
1
10
12.465015
20
6.215080
0
VERTEX
8
1
10
11.540646
20
6.215019
42
0.042611
0
VERTEX
8
1
10
11.384880
20
6.175285
42
0.094513
0
VERTEX
8
1
10
11.071312
20
6.220619
42
0.011312
0
VERTEX
8
1
10
10.889881
20
6.215012
0
VERTEX
8
1
10
10.426167
20
6.187828
0
VERTEX
8
1
10
10.426090
20
6.183395
0
VERTEX
8
1
10
10.386688
20
6.202209
42
0.107829
0
VERTEX
8
1
10
10.100822
20
6.269012
42
0.018890
0
VERTEX
8
1
10
9.226910
20
6.276451
42
0.123687
0
VERTEX
8
1
10
8.754219
20
6.118866
0
VERTEX
8
1
10
8.757462
20
6.134903
0
VERTEX
8
1
10
8.760353
20
6.151009
0
VERTEX
8
1
10
8.762894
20
6.167175
42
0.031201
0
VERTEX
8
1
10
8.775341
20
6.708458
42
0.005700
0
VERTEX
8
1
10
8.757320
20
7.338158
0
VERTEX
8
1
10
8.430927
20
7.446335
42
0.053342
0
VERTEX
8
1
10
7.824467
20
7.577858
42
0.139403
0
VERTEX
8
1
10
7.382545
20
7.505554
42
0.085157
0
VERTEX
8
1
10
7.230297
20
7.393044
0
VERTEX
8
1
10
7.194534
20
7.407921
42
0.053251
0
VERTEX
8
1
10
5.822369
20
8.018860
0
VERTEX
8
1
10
5.698265
20
8.055687
42
0.077589
0
VERTEX
8
1
10
4.527443
20
8.213577
42
0.043729
0
VERTEX
8
1
10
4.257820
20
8.185677
42
0.091490
0
VERTEX
8
1
10
2.604485
20
7.603073
0
VERTEX
8
1
10
2.448616
20
7.507294
0
VERTEX
8
1
10
2.293652
20
7.402245
0
VERTEX
8
1
10
2.215729
20
7.345322
42
0.181084
0
VERTEX
8
1
10
0.875469
20
5.285851
42
0.027326
0
VERTEX
8
1
10
0.799141
20
4.846207
42
0.020378
0
VERTEX
8
1
10
0.793522
20
4.677208
0
VERTEX
8
1
10
0.802681
20
4.492836
0
VERTEX
8
1
10
0.828213
20
4.284119
0
VERTEX
8
1
10
0.872738
20
4.055183
0
VERTEX
8
1
10
0.938850
20
3.810158
0
VERTEX
8
1
10
1.029167
20
3.553154
0
VERTEX
8
1
10
1.146286
20
3.288300
0
VERTEX
8
1
10
1.292820
20
3.019707
0
VERTEX
8
1
10
1.471375
20
2.751503
0
VERTEX
8
1
10
1.684559
20
2.487816
0
VERTEX
8
1
10
1.934975
20
2.232750
0
VERTEX
8
1
10
2.225239
20
1.990440
0
VERTEX
8
1
10
2.557949
20
1.764999
0
VERTEX
8
1
10
2.935715
20
1.560547
0
VERTEX
8
1
10
3.361145
20
1.381203
0
VERTEX
8
1
10
3.552059
20
1.315201
0
VERTEX
8
1
10
3.579926
20
1.306152
42
0.040409
0
VERTEX
8
1
10
4.608936
20
1.170166
42
0.114646
0
VERTEX
8
1
10
6.349194
20
1.502869
42
0.040160
0
VERTEX
8
1
10
7.215519
20
1.979744
42
0.231016
0
VERTEX
8
1
10
7.678440
20
1.765457
42
0.064911
0
VERTEX
8
1
10
8.294380
20
1.838783
42
0.134859
0
VERTEX
8
1
10
8.669239
20
2.046074
0
VERTEX
8
1
10
8.674118
20
2.051147
0
VERTEX
8
1
10
8.678940
20
2.056274
42
0.157159
0
VERTEX
8
1
10
9.176311
20
1.855522
0
VERTEX
8
1
10
10.073864
20
1.855492
42
0.248622
0
VERTEX
8
1
10
10.773258
20
2.319550
42
0.117070
0
VERTEX
8
1
10
10.868607
20
2.723389
42
0.013346
0
VERTEX
8
1
10
10.879875
20
3.599861
42
0.061391
0
VERTEX
8
1
10
11.065872
20
3.525085
0
VERTEX
8
1
10
11.065868
20
1.909767
0
VERTEX
8
1
10
11.069416
20
1.906189
0
VERTEX
8
1
10
11.942333
20
1.906189
0
VERTEX
8
1
10
12.002766
20
1.932663
42
0.103167
0
VERTEX
8
1
10
12.291370
20
1.910843
42
-0.027022
0
VERTEX
8
1
10
12.392994
20
1.909889
0
VERTEX
8
1
10
12.392174
20
1.864380
0
VERTEX
8
1
10
12.392353
20
1.864067
0
VERTEX
8
1
10
12.652145
20
1.885300
0
VERTEX
8
1
10
12.954041
20
1.855286
0
VERTEX
8
1
10
12.954037
20
1.909943
0
VERTEX
8
1
10
13.276402
20
1.936264
0
VERTEX
8
1
10
13.297615
20
1.918854
0
VERTEX
8
1
10
14.240997
20
1.918823
0
VERTEX
8
1
10
14.240788
20
1.906181
0
VERTEX
8
1
10
15.353600
20
1.906227
0
VERTEX
8
1
10
15.374603
20
1.925957
42
0.095142
0
VERTEX
8
1
10
15.616329
20
1.909973
42
-0.011137
0
VERTEX
8
1
10
16.447613
20
1.904961
0
VERTEX
8
1
10
16.525200
20
1.927094
42
0.181412
0
VERTEX
8
1
10
17.083263
20
2.335388
0
VERTEX
8
1
10
17.108688
20
2.380226
0
VERTEX
8
1
10
17.133762
20
2.363945
42
0.270815
0
VERTEX
8
1
10
17.848328
20
1.880890
0
VERTEX
8
1
10
18.745979
20
1.880829
42
0.243448
0
VERTEX
8
1
10
19.437904
20
2.330719
42
0.122150
0
VERTEX
8
1
10
19.541401
20
2.760857
42
0.012532
0
VERTEX
8
1
10
19.552513
20
3.505829
0
VERTEX
8
1
10
19.555164
20
3.516289
0
VERTEX
8
1
10
19.897945
20
3.387459
0
VERTEX
8
1
10
19.899891
20
3.384819
0
VERTEX
8
1
10
19.899887
20
1.893951
0
VERTEX
8
1
10
19.908909
20
1.893509
0
VERTEX
8
1
10
20.946579
20
1.893524
0
VERTEX
8
1
10
20.954208
20
1.902733
0
VERTEX
8
1
10
21.784588
20
1.939896
0
VERTEX
8
1
10
21.788071
20
1.943329
0
VERTEX
8
1
10
21.788071
20
3.490410
0
VERTEX
8
1
10
22.571774
20
4.121696
0
VERTEX
8
1
10
22.572475
20
4.123947
0
VERTEX
8
1
10
21.763390
20
4.123955
0
VERTEX
8
1
10
22.136921
20
4.554176
0
SEQEND
0
POLYLINE
8
1
66
1
70
1
0
VERTEX
8
1
10
8.011730
20
2.250069
42
-0.041827
0
VERTEX
8
1
10
7.737934
20
2.239525
42
-0.308426
0
VERTEX
8
1
10
7.663540
20
2.334526
42
-0.064423
0
VERTEX
8
1
10
7.659973
20
2.532013
0
VERTEX
8
1
10
7.660725
20
2.551178
0
VERTEX
8
1
10
7.661331
20
2.570351
42
0.462992
0
VERTEX
8
1
10
7.600029
20
2.640137
42
0.116160
0
VERTEX
8
1
10
7.438778
20
2.617012
42
0.013525
0
VERTEX
8
1
10
6.797153
20
2.226486
0
VERTEX
8
1
10
6.679180
20
2.157204
42
-0.081968
0
VERTEX
8
1
10
5.490902
20
1.699913
42
-0.079473
0
VERTEX
8
1
10
4.352592
20
1.669991
42
-0.019344
0
VERTEX
8
1
10
3.811733
20
1.758850
42
-0.084595
0
VERTEX
8
1
10
2.619308
20
2.359299
0
VERTEX
8
1
10
2.487167
20
2.463898
42
-0.193945
0
VERTEX
8
1
10
1.378109
20
4.502563
42
-0.046608
0
VERTEX
8
1
10
1.371334
20
4.832710
0
VERTEX
8
1
10
1.401371
20
5.030586
0
VERTEX
8
1
10
1.440536
20
5.219849
0
VERTEX
8
1
10
1.488361
20
5.400673
42
-0.161527
0
VERTEX
8
1
10
2.570145
20
6.976936
0
VERTEX
8
1
10
2.688633
20
7.064209
0
VERTEX
8
1
10
2.809330
20
7.145523
42
-0.111560
0
VERTEX
8
1
10
4.579742
20
7.770523
0
VERTEX
8
1
10
4.708202
20
7.774376
42
-0.074399
0
VERTEX
8
1
10
5.729919
20
7.609276
0
VERTEX
8
1
10
5.852699
20
7.570168
0
VERTEX
8
1
10
5.973450
20
7.528290
42
-0.053154
0
VERTEX
8
1
10
7.374786
20
6.826141
42
0.032550
0
VERTEX
8
1
10
7.558567
20
6.714294
42
0.538308
0
VERTEX
8
1
10
7.637287
20
6.753235
42
0.062259
0
VERTEX
8
1
10
7.654305
20
6.941467
42
-0.031807
0
VERTEX
8
1
10
7.663624
20
7.076805
42
-0.281776
0
VERTEX
8
1
10
7.728546
20
7.130646
0
VERTEX
8
1
10
7.750111
20
7.135536
0
VERTEX
8
1
10
7.773952
20
7.138763
42
-0.074240
0
VERTEX
8
1
10
8.113728
20
7.098091
42
-0.020380
0
VERTEX
8
1
10
8.369427
20
7.027092
42
-0.020549
0
VERTEX
8
1
10
8.372646
20
6.279739
0
VERTEX
8
1
10
8.371063
20
6.261665
42
-0.343562
0
VERTEX
8
1
10
7.917126
20
5.829529
0
VERTEX
8
1
10
7.880489
20
5.829514
42
-0.085463
0
VERTEX
8
1
10
7.283600
20
5.912025
42
-0.057886
0
VERTEX
8
1
10
6.996357
20
6.049431
0
VERTEX
8
1
10
6.872948
20
6.125259
42
0.053603
0
VERTEX
8
1
10
5.790302
20
6.652458
42
0.079839
0
VERTEX
8
1
10
4.791725
20
6.838654
0
VERTEX
8
1
10
4.685989
20
6.837646
42
0.077317
0
VERTEX
8
1
10
4.126221
20
6.735382
0
VERTEX
8
1
10
4.061504
20
6.713371
42
0.147927
0
VERTEX
8
1
10
3.023529
20
5.970192
42
0.101545
0
VERTEX
8
1
10
2.638123
20
5.136932
0
VERTEX
8
1
10
2.608917
20
5.005524
0
VERTEX
8
1
10
2.584923
20
4.867523
42
0.099778
0
VERTEX
8
1
10
2.786774
20
3.798088
42
0.185800
0
VERTEX
8
1
10
3.747330
20
2.779640
42
0.058422
0
VERTEX
8
1
10
4.273384
20
2.596939
0
VERTEX
8
1
10
4.322838
20
2.591553
42
0.050124
0
VERTEX
8
1
10
5.081917
20
2.566116
42
0.070280
0
VERTEX
8
1
10
5.929543
20
2.773796
42
0.037057
0
VERTEX
8
1
10
6.865608
20
3.225594
0
VERTEX
8
1
10
7.004448
20
3.305183
0
VERTEX
8
1
10
7.102085
20
3.362381
42
-0.203147
0
VERTEX
8
1
10
8.042801
20
3.470871
42
-0.050333
0
VERTEX
8
1
10
8.214207
20
3.408936
0
VERTEX
8
1
10
8.225399
20
3.396477
0
VERTEX
8
1
10
8.236347
20
3.382492
0
VERTEX
8
1
10
8.247040
20
3.367020
0
VERTEX
8
1
10
8.257488
20
3.350075
0
VERTEX
8
1
10
8.267670
20
3.331711
42
-0.076951
0
VERTEX
8
1
10
8.388649
20
2.894638
42
-0.029301
0
VERTEX
8
1
10
8.429729
20
2.432114
42
-0.226241
0
VERTEX
8
1
10
8.370186
20
2.346169
42
-0.101194
0
VERTEX
8
1
10
8.119648
20
2.264481
42
-0.015805
0
SEQEND
0
POLYLINE
8
1
66
1
70
1
0
VERTEX
8
1
10
8.459869
20
5.554893
42
0.050775
0
VERTEX
8
1
10
8.428261
20
5.258347
42
0.015247
0
VERTEX
8
1
10
8.423630
20
4.571159
0
VERTEX
8
1
10
8.325550
20
4.432892
42
0.369346
0
VERTEX
8
1
10
8.378613
20
3.846535
0
VERTEX
8
1
10
8.323330
20
3.866714
0
VERTEX
8
1
10
8.287296
20
3.879097
0
VERTEX
8
1
10
8.251240
20
3.890755
42
0.214095
0
VERTEX
8
1
10
6.839611
20
3.746338
42
-0.034629
0
VERTEX
8
1
10
5.858181
20
3.240540
0
VERTEX
8
1
10
5.746243
20
3.196053
0
VERTEX
8
1
10
5.640728
20
3.157616
0
VERTEX
8
1
10
5.541233
20
3.124802
42
-0.108116
0
VERTEX
8
1
10
4.542000
20
3.030823
42
-0.016697
0
VERTEX
8
1
10
4.340202
20
3.053917
42
-0.065222
0
VERTEX
8
1
10
3.889187
20
3.234222
42
-0.155608
0
VERTEX
8
1
10
3.271534
20
3.902199
42
-0.101089
0
VERTEX
8
1
10
3.075287
20
4.755630
0
VERTEX
8
1
10
3.078480
20
4.861115
42
-0.089044
0
VERTEX
8
1
10
3.321278
20
5.554306
42
-0.160387
0
VERTEX
8
1
10
4.084988
20
6.229637
42
-0.055859
0
VERTEX
8
1
10
4.535789
20
6.370872
42
-0.078858
0
VERTEX
8
1
10
5.192783
20
6.343323
0
VERTEX
8
1
10
5.316399
20
6.317154
0
VERTEX
8
1
10
5.437935
20
6.285843
0
VERTEX
8
1
10
5.557014
20
6.250061
42
-0.059056
0
VERTEX
8
1
10
6.598312
20
5.753418
0
VERTEX
8
1
10
6.752796
20
5.658630
42
0.133267
0
VERTEX
8
1
10
7.752438
20
5.377586
42
0.016174
0
VERTEX
8
1
10
7.976868
20
5.377388
42
0.127746
0
VERTEX
8
1
10
8.459999
20
5.562065
0
SEQEND
0
POLYLINE
8
1
66
1
70
1
0
VERTEX
8
1
10
9.601372
20
5.885498
0
VERTEX
8
1
10
9.601372
20
5.045959
0
VERTEX
8
1
10
9.319561
20
5.050751
0
VERTEX
8
1
10
9.318710
20
5.049927
0
VERTEX
8
1
10
9.318710
20
4.466873
42
0.214241
0
VERTEX
8
1
10
9.421066
20
4.266937
42
0.025775
0
VERTEX
8
1
10
9.538200
20
4.171928
0
VERTEX
8
1
10
9.539452
20
4.163254
42
0.219041
0
VERTEX
8
1
10
9.378773
20
4.045082
42
0.066075
0
VERTEX
8
1
10
9.318752
20
3.916603
0
VERTEX
8
1
10
9.318710
20
3.126083
0
VERTEX
8
1
10
9.318810
20
3.121132
0
VERTEX
8
1
10
9.600990
20
3.121132
0
VERTEX
8
1
10
9.601372
20
3.117981
0
VERTEX
8
1
10
9.601372
20
2.280655
0
VERTEX
8
1
10
9.600239
20
2.273659
0
VERTEX
8
1
10
9.287262
20
2.273666
42
-0.266783
0
VERTEX
8
1
10
8.988262
20
2.473801
42
-0.104978
0
VERTEX
8
1
10
8.914108
20
2.743027
42
-0.012454
0
VERTEX
8
1
10
8.900330
20
3.889656
42
0.217139
0
VERTEX
8
1
10
8.785896
20
4.094933
42
-0.054309
0
VERTEX
8
1
10
8.712132
20
4.161186
0
VERTEX
8
1
10
8.709511
20
4.168892
0
VERTEX
8
1
10
8.711014
20
4.175949
42
0.162628
0
VERTEX
8
1
10
8.868710
20
4.299156
42
0.048508
0
VERTEX
8
1
10
8.900600
20
4.346992
42
-0.022887
0
VERTEX
8
1
10
8.899227
20
5.346840
0
VERTEX
8
1
10
8.907295
20
5.439743
0
VERTEX
8
1
10
8.923424
20
5.521904
0
VERTEX
8
1
10
8.946255
20
5.593407
42
-0.318748
0
VERTEX
8
1
10
9.379128
20
5.886459
42
0.008703
0
VERTEX
8
1
10
9.593159
20
5.887962
0
SEQEND
0
POLYLINE
8
1
66
1
70
1
0
VERTEX
8
1
10
10.560745
20
4.024483
42
0.032570
0
VERTEX
8
1
10
10.465115
20
3.903412
42
-0.015642
0
VERTEX
8
1
10
10.453049
20
2.645287
42
-0.351561
0
VERTEX
8
1
10
10.114285
20
2.273666
0
VERTEX
8
1
10
9.823593
20
2.273697
0
VERTEX
8
1
10
9.823593
20
3.120605
0
VERTEX
8
1
10
9.825035
20
3.121124
0
VERTEX
8
1
10
10.086666
20
3.121132
0
VERTEX
8
1
10
10.087509
20
3.122070
42
0.007861
0
VERTEX
8
1
10
10.100357
20
3.894028
42
0.209874
0
VERTEX
8
1
10
9.933861
20
4.119881
42
-0.032850
0
VERTEX
8
1
10
9.873047
20
4.162872
42
0.257174
0
VERTEX
8
1
10
10.073711
20
4.348633
42
0.063187
0
VERTEX
8
1
10
10.100933
20
4.452446
0
VERTEX
8
1
10
10.087570
20
5.033966
0
VERTEX
8
1
10
10.087387
20
5.037727
0
VERTEX
8
1
10
9.823635
20
5.042191
0
VERTEX
8
1
10
9.823593
20
5.886192
0
VERTEX
8
1
10
9.836422
20
5.887642
42
-0.025170
0
VERTEX
8
1
10
10.206345
20
5.869186
42
-0.218640
0
VERTEX
8
1
10
10.427414
20
5.670860
42
-0.081131
0
VERTEX
8
1
10
10.478603
20
5.494072
0
VERTEX
8
1
10
10.478603
20
4.474373
42
0.218129
0
VERTEX
8
1
10
10.548817
20
4.310028
42
0.010622
0
VERTEX
8
1
10
10.721836
20
4.163368
0
VERTEX
8
1
10
10.728245
20
4.149521
42
0.128369
0
SEQEND
0
POLYLINE
8
1
66
1
70
1
0
VERTEX
8
1
10
14.578629
20
5.786659
0
VERTEX
8
1
10
14.565170
20
5.026283
0
VERTEX
8
1
10
14.308918
20
5.013557
42
0.020563
0
VERTEX
8
1
10
14.119263
20
4.285866
42
0.245208
0
VERTEX
8
1
10
14.191593
20
4.073418
42
0.000674
0
VERTEX
8
1
10
14.284859
20
3.974556
0
VERTEX
8
1
10
14.284252
20
3.962273
0
VERTEX
8
1
10
14.245968
20
3.962151
0
VERTEX
8
1
10
14.210674
20
3.959312
0
VERTEX
8
1
10
14.178326
20
3.954102
42
0.206745
0
VERTEX
8
1
10
13.984917
20
3.834023
0
VERTEX
8
1
10
13.770069
20
3.140068
0
VERTEX
8
1
10
13.769726
20
3.138023
0
VERTEX
8
1
10
13.904034
20
3.150650
0
VERTEX
8
1
10
13.904308
20
3.148262
0
VERTEX
8
1
10
13.904308
20
2.391258
0
VERTEX
8
1
10
13.902863
20
2.390282
0
VERTEX
8
1
10
13.567371
20
2.390282
42
-0.183019
0
VERTEX
8
1
10
13.446163
20
2.626602
42
-0.192102
0
VERTEX
8
1
10
13.305775
20
2.417877
42
-0.021342
0
VERTEX
8
1
10
13.283901
20
2.402962
0
VERTEX
8
1
10
12.973698
20
2.377617
0
VERTEX
8
1
10
12.987202
20
3.138008
0
VERTEX
8
1
10
13.147991
20
3.163177
0
VERTEX
8
1
10
13.148869
20
3.163864
0
VERTEX
8
1
10
12.773296
20
4.386429
0
VERTEX
8
1
10
12.771069
20
4.391502
0
VERTEX
8
1
10
12.422066
20
3.142792
0
VERTEX
8
1
10
12.420937
20
3.138016
0
VERTEX
8
1
10
12.555222
20
3.150635
0
VERTEX
8
1
10
12.555595
20
3.148834
0
VERTEX
8
1
10
12.555595
20
2.379066
0
VERTEX
8
1
10
12.555138
20
2.377663
42
0.039880
0
VERTEX
8
1
10
12.266468
20
2.376801
42
-0.312977
0
VERTEX
8
1
10
12.171761
20
2.450562
42
-0.035974
0
VERTEX
8
1
10
12.125732
20
2.611412
42
-0.214094
0
VERTEX
8
1
10
12.017391
20
2.436600
42
-0.057057
0
VERTEX
8
1
10
11.921757
20
2.377640
0
VERTEX
8
1
10
11.638493
20
2.377617
0
VERTEX
8
1
10
11.638485
20
3.150673
0
VERTEX
8
1
10
11.773342
20
3.150734
42
0.050092
0
VERTEX
8
1
10
11.620716
20
3.767303
42
0.241302
0
VERTEX
8
1
10
11.334736
20
3.969124
42
-0.025204
0
VERTEX
8
1
10
11.268139
20
3.984184
0
VERTEX
8
1
10
11.274002
20
3.994400
42
0.212498
0
VERTEX
8
1
10
11.414234
20
4.202087
42
0.103070
0
VERTEX
8
1
10
11.408936
20
4.494904
0
VERTEX
8
1
10
11.247780
20
5.012268
0
VERTEX
8
1
10
11.246670
20
5.013634
0
VERTEX
8
1
10
10.978092
20
5.026260
0
VERTEX
8
1
10
10.977676
20
5.028946
0
VERTEX
8
1
10
10.991077
20
5.773209
0
VERTEX
8
1
10
10.992123
20
5.774048
42
-0.041605
0
VERTEX
8
1
10
11.258614
20
5.774475
42
-0.292270
0
VERTEX
8
1
10
11.422222
20
5.640213
42
-0.048312
0
VERTEX
8
1
10
11.448704
20
5.550606
42
-0.274886
0
VERTEX
8
1
10
11.678944
20
5.773987
0
VERTEX
8
1
10
11.921707
20
5.773964
0
VERTEX
8
1
10
11.921650
20
5.026283
0
VERTEX
8
1
10
11.653564
20
5.026283
0
VERTEX
8
1
10
11.652245
20
5.025291
0
VERTEX
8
1
10
12.108448
20
3.348465
0
VERTEX
8
1
10
12.111046
20
3.342690
0
VERTEX
8
1
10
12.554085
20
5.007935
0
VERTEX
8
1
10
12.555119
20
5.013611
0
VERTEX
8
1
10
12.299957
20
5.013611
0
VERTEX
8
1
10
12.299339
20
5.015709
0
VERTEX
8
1
10
12.299343
20
5.772797
0
VERTEX
8
1
10
12.300373
20
5.773994
0
VERTEX
8
1
10
12.568840
20
5.773987
42
-0.267099
0
VERTEX
8
1
10
12.734505
20
5.693275
42
-0.093645
0
VERTEX
8
1
10
12.795895
20
5.567123
0
VERTEX
8
1
10
12.806599
20
5.589294
0
VERTEX
8
1
10
12.818474
20
5.623810
0
VERTEX
8
1
10
12.831795
20
5.654053
0
VERTEX
8
1
10
12.846245
20
5.680298
42
-0.245523
0
VERTEX
8
1
10
12.998837
20
5.786591
0
VERTEX
8
1
10
13.243446
20
5.786659
0
VERTEX
8
1
10
13.229950
20
5.026283
0
VERTEX
8
1
10
12.948708
20
5.013702
0
VERTEX
8
1
10
12.946865
20
5.013107
0
VERTEX
8
1
10
13.442959
20
3.324860
0
VERTEX
8
1
10
13.446072
20
3.316612
0
VERTEX
8
1
10
13.915775
20
5.006363
0
VERTEX
8
1
10
13.917439
20
5.013596
0
VERTEX
8
1
10
13.648895
20
5.000969
0
VERTEX
8
1
10
13.648022
20
5.002548
0
VERTEX
8
1
10
13.634605
20
5.784943
0
VERTEX
8
1
10
13.635143
20
5.786667
0
VERTEX
8
1
10
13.886265
20
5.786659
42
-0.342005
0
VERTEX
8
1
10
14.132175
20
5.566483
42
-0.188376
0
VERTEX
8
1
10
14.250225
20
5.761620
42
-0.025362
0
VERTEX
8
1
10
14.281891
20
5.786621
0
SEQEND
0
POLYLINE
8
1
66
1
70
1
0
VERTEX
8
1
10
15.893036
20
5.808380
0
VERTEX
8
1
10
15.893036
20
5.032967
0
VERTEX
8
1
10
15.618217
20
5.037704
0
VERTEX
8
1
10
15.617142
20
5.036247
0
VERTEX
8
1
10
15.603695
20
4.412018
0
VERTEX
8
1
10
15.606358
20
4.411797
0
VERTEX
8
1
10
15.891426
20
4.398956
0
VERTEX
8
1
10
15.893036
20
4.398308
0
VERTEX
8
1
10
15.893036
20
3.940788
42
0.010089
0
VERTEX
8
1
10
15.603691
20
3.929092
0
VERTEX
8
1
10
15.603691
20
3.122414
0
VERTEX
8
1
10
15.605118
20
3.121208
0
VERTEX
8
1
10
15.893032
20
3.135529
0
VERTEX
8
1
10
15.893036
20
2.333832
0
VERTEX
8
1
10
15.879662
20
2.331596
42
0.026660
0
VERTEX
8
1
10
15.602207
20
2.324997
42
-0.211256
0
VERTEX
8
1
10
15.512199
20
2.383904
42
-0.094206
0
VERTEX
8
1
10
15.419720
20
2.581627
0
VERTEX
8
1
10
15.413506
20
2.591446
0
VERTEX
8
1
10
15.407532
20
2.570045
0
VERTEX
8
1
10
15.398304
20
2.547554
42
-0.076961
0
VERTEX
8
1
10
15.226089
20
2.325859
0
VERTEX
8
1
10
14.810558
20
2.325806
0
VERTEX
8
1
10
14.807968
20
2.326561
0
VERTEX
8
1
10
14.821426
20
3.120369
0
VERTEX
8
1
10
14.823788
20
3.121056
0
VERTEX
8
1
10
15.195877
20
3.108200
0
VERTEX
8
1
10
15.199066
20
3.108284
42
0.015661
0
VERTEX
8
1
10
15.200050
20
3.851349
42
0.222422
0
VERTEX
8
1
10
15.091640
20
4.062744
42
-0.033163
0
VERTEX
8
1
10
14.984501
20
4.164558
0
VERTEX
8
1
10
15.014450
20
4.176262
0
VERTEX
8
1
10
15.042103
20
4.190674
42
0.158185
0
VERTEX
8
1
10
15.212513
20
4.400642
0
VERTEX
8
1
10
15.199062
20
5.037666
0
VERTEX
8
1
10
14.823303
20
5.024742
0
VERTEX
8
1
10
14.821434
20
5.025955
0
VERTEX
8
1
10
14.821438
20
5.832649
0
VERTEX
8
1
10
14.823414
20
5.833145
42
-0.035128
0
VERTEX
8
1
10
15.175869
20
5.832390
42
-0.189218
0
VERTEX
8
1
10
15.337856
20
5.715141
42
-0.061724
0
VERTEX
8
1
10
15.410671
20
5.582596
0
VERTEX
8
1
10
15.420769
20
5.595482
42
-0.229031
0
VERTEX
8
1
10
15.603745
20
5.806976
0
VERTEX
8
1
10
15.892357
20
5.811333
0
SEQEND
0
POLYLINE
8
1
66
1
70
1
0
VERTEX
8
1
10
16.807495
20
3.132492
0
VERTEX
8
1
10
16.804020
20
3.121132
42
0.002238
0
VERTEX
8
1
10
16.777386
20
2.671089
42
-0.219908
0
VERTEX
8
1
10
16.649654
20
2.432007
42
-0.090360
0
VERTEX
8
1
10
16.453621
20
2.325882
42
0.001222
0
VERTEX
8
1
10
16.128952
20
2.330124
0
VERTEX
8
1
10
16.115261
20
2.335136
0
VERTEX
8
1
10
16.115261
20
3.143944
0
VERTEX
8
1
10
16.116337
20
3.146759
0
VERTEX
8
1
10
16.384506
20
3.160164
0
VERTEX
8
1
10
16.385929
20
3.161591
0
VERTEX
8
1
10
16.385929
20
3.729568
42
0.165288
0
VERTEX
8
1
10
16.220993
20
3.912491
42
0.089771
0
VERTEX
8
1
10
16.115257
20
3.936295
0
VERTEX
8
1
10
16.115261
20
4.388855
0
VERTEX
8
1
10
16.183590
20
4.385834
42
0.129282
0
VERTEX
8
1
10
16.340714
20
4.478622
42
0.214585
0
VERTEX
8
1
10
16.385838
20
4.617813
42
0.011900
0
VERTEX
8
1
10
16.371235
20
5.024704
0
VERTEX
8
1
10
16.116440
20
5.029091
0
VERTEX
8
1
10
16.115265
20
5.031364
0
VERTEX
8
1
10
16.115261
20
5.809395
0
VERTEX
8
1
10
16.115795
20
5.814690
0
VERTEX
8
1
10
16.463596
20
5.819946
0
VERTEX
8
1
10
16.477093
20
5.816017
42
-0.204276
0
VERTEX
8
1
10
16.790531
20
5.481018
0
VERTEX
8
1
10
16.803905
20
5.261208
0
VERTEX
8
1
10
16.808578
20
5.215118
42
0.236980
0
VERTEX
8
1
10
16.916779
20
5.044083
42
-0.128209
0
VERTEX
8
1
10
17.030994
20
4.937759
0
VERTEX
8
1
10
17.003269
20
4.926895
42
0.224455
0
VERTEX
8
1
10
16.820763
20
4.745331
42
0.118630
0
VERTEX
8
1
10
16.798313
20
4.635292
42
0.015847
0
VERTEX
8
1
10
16.775043
20
4.276787
42
-0.211397
0
VERTEX
8
1
10
16.738567
20
4.213844
42
0.087010
0
VERTEX
8
1
10
16.675106
20
4.147705
0
VERTEX
8
1
10
16.677280
20
4.133888
42
-0.151968
0
VERTEX
8
1
10
16.790531
20
3.994308
42
0.036104
0
VERTEX
8
1
10
16.819656
20
3.608673
42
0.157115
0
VERTEX
8
1
10
16.944229
20
3.428841
42
-0.040091
0
VERTEX
8
1
10
17.033585
20
3.346214
0
VERTEX
8
1
10
17.041954
20
3.329689
0
VERTEX
8
1
10
17.004318
20
3.325996
42
0.253179
0
VERTEX
8
1
10
16.818840
20
3.161850
0
VERTEX
8
1
10
16.812096
20
3.145363
0
SEQEND
0
POLYLINE
8
1
66
1
70
1
0
VERTEX
8
1
10
18.240261
20
5.912270
0
VERTEX
8
1
10
18.240261
20
5.072601
0
VERTEX
8
1
10
17.991337
20
5.076828
0
VERTEX
8
1
10
17.990879
20
5.075432
0
VERTEX
8
1
10
17.990898
20
4.487053
0
VERTEX
8
1
10
17.992676
20
4.463020
42
0.183284
0
VERTEX
8
1
10
18.116009
20
4.272537
42
0.011338
0
VERTEX
8
1
10
18.215752
20
4.193779
0
VERTEX
8
1
10
18.201466
20
4.187698
0
VERTEX
8
1
10
18.175808
20
4.180656
42
0.190465
0
VERTEX
8
1
10
18.022755
20
4.021561
42
0.042867
0
VERTEX
8
1
10
17.990879
20
3.942047
0
VERTEX
8
1
10
17.990875
20
3.147476
0
VERTEX
8
1
10
17.992451
20
3.147194
0
VERTEX
8
1
10
18.239323
20
3.147202
0
VERTEX
8
1
10
18.240261
20
3.146042
0
VERTEX
8
1
10
18.240261
20
2.299767
0
VERTEX
8
1
10
17.958553
20
2.299736
42
-0.267420
0
VERTEX
8
1
10
17.659321
20
2.501907
42
-0.102273
0
VERTEX
8
1
10
17.586441
20
2.765495
42
-0.012256
0
VERTEX
8
1
10
17.571976
20
3.889778
42
0.241096
0
VERTEX
8
1
10
17.469902
20
4.110542
42
-0.022233
0
VERTEX
8
1
10
17.387939
20
4.181885
42
-0.457919
0
VERTEX
8
1
10
17.387432
20
4.204178
0
VERTEX
8
1
10
17.405617
20
4.210167
42
0.150716
0
VERTEX
8
1
10
17.572742
20
4.372688
42
-0.024882
0
VERTEX
8
1
10
17.575375
20
5.432289
0
VERTEX
8
1
10
17.588867
20
5.519203
42
-0.162851
0
VERTEX
8
1
10
17.743515
20
5.802261
42
-0.191988
0
VERTEX
8
1
10
18.085224
20
5.911285
42
-0.012757
0
SEQEND
0
POLYLINE
8
1
66
1
70
1
0
VERTEX
8
1
10
19.231750
20
4.049263
42
0.032233
0
VERTEX
8
1
10
19.137287
20
3.929482
42
-0.015274
0
VERTEX
8
1
10
19.125748
20
2.679314
42
-0.357273
0
VERTEX
8
1
10
18.786613
20
2.299736
0
VERTEX
8
1
10
18.472458
20
2.299736
0
VERTEX
8
1
10
18.462486
20
2.303581
0
VERTEX
8
1
10
18.462482
20
3.142632
0
VERTEX
8
1
10
18.462662
20
3.147209
0
VERTEX
8
1
10
18.759537
20
3.147202
0
VERTEX
8
1
10
18.759724
20
3.150345
42
0.011405
0
VERTEX
8
1
10
18.771183
20
3.927254
42
0.201030
0
VERTEX
8
1
10
18.608288
20
4.144325
42
-0.024545
0
VERTEX
8
1
10
18.544289
20
4.189827
42
0.261913
0
VERTEX
8
1
10
18.746346
20
4.375916
42
0.060077
0
VERTEX
8
1
10
18.773041
20
4.476486
0
VERTEX
8
1
10
18.759632
20
5.063812
0
VERTEX
8
1
10
18.462891
20
5.068840
0
VERTEX
8
1
10
18.462486
20
5.072021
0
VERTEX
8
1
10
18.462482
20
5.908875
0
VERTEX
8
1
10
18.467030
20
5.914169
42
-0.019122
0
VERTEX
8
1
10
18.862717
20
5.898689
42
-0.224436
0
VERTEX
8
1
10
19.091103
20
5.713745
42
-0.091412
0
VERTEX
8
1
10
19.150787
20
5.519302
0
VERTEX
8
1
10
19.150784
20
4.493347
42
0.212082
0
VERTEX
8
1
10
19.224155
20
4.332893
42
0.007033
0
VERTEX
8
1
10
19.396450
20
4.187202
0
VERTEX
8
1
10
19.397846
20
4.174896
42
0.124705
0
SEQEND
0
POLYLINE
8
1
66
1
70
1
0
VERTEX
8
1
10
21.982044
20
5.012466
0
VERTEX
8
1
10
21.146847
20
4.050468
0
VERTEX
8
1
10
21.146847
20
3.873238
42
0.102584
0
VERTEX
8
1
10
21.276100
20
3.709694
42
0.114816
0
VERTEX
8
1
10
21.336304
20
3.683823
0
VERTEX
8
1
10
21.341991
20
3.677147
42
0.112581
0
VERTEX
8
1
10
21.175022
20
3.491570
0
VERTEX
8
1
10
21.168472
20
3.474899
0
VERTEX
8
1
10
21.163479
20
3.457954
42
0.042656
0
VERTEX
8
1
10
21.148666
20
3.163246
0
VERTEX
8
1
10
21.388771
20
3.150719
0
VERTEX
8
1
10
21.389618
20
3.148544
0
VERTEX
8
1
10
21.389618
20
2.396797
0
VERTEX
8
1
10
21.389519
20
2.390274
0
VERTEX
8
1
10
21.106449
20
2.377617
42
-0.166670
0
VERTEX
8
1
10
20.947155
20
2.593704
0
VERTEX
8
1
10
20.938511
20
2.591972
42
-0.060345
0
VERTEX
8
1
10
20.795944
20
2.364944
0
VERTEX
8
1
10
20.472515
20
2.364944
0
VERTEX
8
1
10
20.472504
20
3.149384
0
VERTEX
8
1
10
20.473740
20
3.150673
0
VERTEX
8
1
10
20.713924
20
3.150673
0
VERTEX
8
1
10
20.715282
20
3.151085
0
VERTEX
8
1
10
20.728771
20
3.442154
42
0.098660
0
VERTEX
8
1
10
20.591915
20
3.645622
42
0.080720
0
VERTEX
8
1
10
20.520241
20
3.692719
0
VERTEX
8
1
10
20.526600
20
3.702957
42
0.052145
0
VERTEX
8
1
10
20.722305
20
3.828224
42
0.290657
0
VERTEX
8
1
10
20.740513
20
3.895081
42
0.009651
0
VERTEX
8
1
10
20.728638
20
4.012589
0
VERTEX
8
1
10
19.892960
20
5.000458
0
VERTEX
8
1
10
19.890724
20
5.001022
0
VERTEX
8
1
10
19.664001
20
5.013573
0
VERTEX
8
1
10
19.663288
20
5.016037
0
VERTEX
8
1
10
19.663288
20
5.780479
0
VERTEX
8
1
10
19.663433
20
5.786659
0
VERTEX
8
1
10
19.973434
20
5.786659
42
-0.148090
0
VERTEX
8
1
10
20.118401
20
5.582428
0
VERTEX
8
1
10
20.127106
20
5.588264
0
VERTEX
8
1
10
20.138802
20
5.615631
0
VERTEX
8
1
10
20.153412
20
5.640800
42
-0.146135
0
VERTEX
8
1
10
20.351364
20
5.786644
0
VERTEX
8
1
10
20.607361
20
5.773987
0
VERTEX
8
1
10
20.593895
20
5.027321
0
VERTEX
8
1
10
20.592152
20
5.026276
0
VERTEX
8
1
10
20.285244
20
5.026283
0
VERTEX
8
1
10
20.284775
20
5.024940
0
VERTEX
8
1
10
20.944565
20
4.215240
0
VERTEX
8
1
10
21.604897
20
5.012993
0
VERTEX
8
1
10
21.603050
20
5.013618
0
VERTEX
8
1
10
21.269531
20
5.013611
0
VERTEX
8
1
10
21.268238
20
5.015511
0
VERTEX
8
1
10
21.268303
20
5.773979
0
VERTEX
8
1
10
21.497437
20
5.773987
42
-0.189183
0
VERTEX
8
1
10
21.644016
20
5.702042
42
-0.092637
0
VERTEX
8
1
10
21.719158
20
5.589317
0
VERTEX
8
1
10
21.731472
20
5.586708
0
VERTEX
8
1
10
21.742664
20
5.614204
42
-0.176909
0
VERTEX
8
1
10
21.942753
20
5.786659
0
VERTEX
8
1
10
22.198826
20
5.773987
0
VERTEX
8
1
10
22.198849
20
5.027695
0
VERTEX
8
1
10
22.197842
20
5.026230
0
VERTEX
8
1
10
21.984333
20
5.013687
0
SEQEND
0
POLYLINE
8
1
66
1
70
1
0
VERTEX
8
1
10
28.500507
20
4.078056
42
-0.004864
0
VERTEX
8
1
10
28.491833
20
5.597397
42
0.332500
0
VERTEX
8
1
10
27.729382
20
6.431641
0
VERTEX
8
1
10
27.683598
20
6.439651
0
VERTEX
8
1
10
26.771809
20
6.439629
42
0.033370
0
VERTEX
8
1
10
26.643749
20
6.400749
0
VERTEX
8
1
10
26.624332
20
6.408493
0
VERTEX
8
1
10
26.532772
20
6.441681
0
VERTEX
8
1
10
26.017811
20
6.428909
42
0.057020
0
VERTEX
8
1
10
25.623791
20
6.427437
42
0.052862
0
VERTEX
8
1
10
25.492023
20
6.390350
0
VERTEX
8
1
10
25.424381
20
6.432625
0
VERTEX
8
1
10
24.761677
20
6.432663
0
VERTEX
8
1
10
24.419636
20
6.450493
42
0.005320
0
VERTEX
8
1
10
24.274868
20
6.402939
42
0.028332
0
VERTEX
8
1
10
24.154926
20
6.446655
0
VERTEX
8
1
10
23.348736
20
6.446678
0
VERTEX
8
1
10
23.342175
20
6.445221
0
VERTEX
8
1
10
23.312389
20
4.553818
0
VERTEX
8
1
10
23.314350
20
4.551552
0
VERTEX
8
1
10
23.604778
20
4.566689
0
VERTEX
8
1
10
23.607571
20
4.566750
0
VERTEX
8
1
10
23.607670
20
4.560089
42
0.054827
0
VERTEX
8
1
10
23.465649
20
4.365005
0
VERTEX
8
1
10
23.189556
20
3.861633
0
VERTEX
8
1
10
23.190624
20
3.859612
0
VERTEX
8
1
10
23.574566
20
3.699608
0
VERTEX
8
1
10
23.579494
20
3.694046
42
0.012743
0
VERTEX
8
1
10
23.615871
20
2.516037
42
0.126281
0
VERTEX
8
1
10
23.742756
20
2.133553
42
0.102858
0
VERTEX
8
1
10
24.126492
20
1.747643
0
VERTEX
8
1
10
24.245289
20
1.669495
0
VERTEX
8
1
10
24.246181
20
1.669159
42
0.021141
0
VERTEX
8
1
10
25.327396
20
1.700005
42
0.106626
0
VERTEX
8
1
10
25.675556
20
1.811371
0
VERTEX
8
1
10
25.673321
20
1.666862
0
VERTEX
8
1
10
25.674656
20
1.665894
0
VERTEX
8
1
10
26.638927
20
1.644455
0
VERTEX
8
1
10
26.648586
20
1.637177
0
VERTEX
8
1
10
27.572086
20
1.660049
0
VERTEX
8
1
10
27.573002
20
1.672363
0
VERTEX
8
1
10
27.559765
20
3.369293
0
VERTEX
8
1
10
27.564144
20
3.384918
42
0.007771
0
VERTEX
8
1
10
27.864437
20
3.392532
42
0.208928
0
VERTEX
8
1
10
28.351650
20
3.712219
42
0.105220
0
SEQEND
0
POLYLINE
8
1
66
1
70
1
0
VERTEX
8
1
10
26.037777
20
5.939453
0
VERTEX
8
1
10
26.024364
20
5.114594
0
VERTEX
8
1
10
25.782841
20
5.114594
0
VERTEX
8
1
10
25.781605
20
5.113930
0
VERTEX
8
1
10
25.768139
20
4.455223
42
0.092290
0
VERTEX
8
1
10
25.870518
20
4.236923
42
0.169803
0
VERTEX
8
1
10
25.981709
20
4.159523
42
0.189190
0
VERTEX
8
1
10
25.803501
20
3.982353
42
0.132546
0
VERTEX
8
1
10
25.749928
20
3.747154
42
0.004330
0
VERTEX
8
1
10
25.739613
20
2.604767
42
-0.145417
0
VERTEX
8
1
10
25.592922
20
2.322136
42
-0.169188
0
VERTEX
8
1
10
25.373112
20
2.220917
42
-0.020238
0
VERTEX
8
1
10
24.473309
20
2.191895
42
-0.093850
0
VERTEX
8
1
10
24.233875
20
2.429848
42
-0.145546
0
VERTEX
8
1
10
24.183430
20
2.611580
42
-0.010325
0
VERTEX
8
1
10
24.149426
20
3.907150
42
0.162779
0
VERTEX
8
1
10
24.017712
20
4.107224
0
VERTEX
8
1
10
23.996334
20
4.120422
0
VERTEX
8
1
10
23.974888
20
4.131966
42
-0.034626
0
VERTEX
8
1
10
24.115704
20
4.308723
42
0.214343
0
VERTEX
8
1
10
24.180141
20
4.494270
42
0.014353
0
VERTEX
8
1
10
24.161907
20
5.114532
0
VERTEX
8
1
10
23.893429
20
5.100540
0
VERTEX
8
1
10
23.906826
20
5.953011
0
VERTEX
8
1
10
23.907108
20
5.957680
0
VERTEX
8
1
10
24.162693
20
5.957680
42
-0.251854
0
VERTEX
8
1
10
24.364651
20
5.708641
42
-0.270543
0
VERTEX
8
1
10
24.567883
20
5.957672
0
VERTEX
8
1
10
24.836803
20
5.943665
0
VERTEX
8
1
10
24.837513
20
5.941368
0
VERTEX
8
1
10
24.837513
20
5.086830
0
VERTEX
8
1
10
24.835773
20
5.086494
0
VERTEX
8
1
10
24.581272
20
5.086403
0
VERTEX
8
1
10
24.567822
20
4.484428
0
VERTEX
8
1
10
24.568027
20
4.481697
42
0.065327
0
VERTEX
8
1
10
24.725018
20
4.217834
42
0.149584
0
VERTEX
8
1
10
24.805141
20
4.160019
0
VERTEX
8
1
10
24.794918
20
4.148201
42
0.094777
0
VERTEX
8
1
10
24.613415
20
3.982811
42
0.137220
0
VERTEX
8
1
10
24.578922
20
3.864464
42
0.011511
0
VERTEX
8
1
10
24.568707
20
3.034958
0
VERTEX
8
1
10
25.348942
20
3.034966
0
VERTEX
8
1
10
25.350018
20
3.038696
0
VERTEX
8
1
10
25.350018
20
3.906120
42
0.226236
0
VERTEX
8
1
10
25.157024
20
4.136726
0
VERTEX
8
1
10
25.137897
20
4.147598
42
0.135179
0
VERTEX
8
1
10
25.329205
20
4.371040
42
0.103723
0
VERTEX
8
1
10
25.354465
20
4.542183
42
0.014033
0
VERTEX
8
1
10
25.348042
20
5.114594
0
VERTEX
8
1
10
25.095631
20
5.114594
0
VERTEX
8
1
10
25.093792
20
5.114838
0
VERTEX
8
1
10
25.107204
20
5.941200
0
VERTEX
8
1
10
25.107883
20
5.943619
0
VERTEX
8
1
10
25.376858
20
5.943626
42
-0.140036
0
VERTEX
8
1
10
25.566441
20
5.720703
42
-0.227845
0
VERTEX
8
1
10
25.774052
20
5.941803
42
-0.060931
0
VERTEX
8
1
10
26.002026
20
5.945908
0
VERTEX
8
1
10
26.037663
20
5.943642
0
SEQEND
0
POLYLINE
8
1
66
1
70
1
0
VERTEX
8
1
10
28.070660
20
4.144218
42
-0.167659
0
VERTEX
8
1
10
27.935825
20
3.937073
42
-0.179292
0
VERTEX
8
1
10
27.803974
20
3.903740
42
-0.004367
0
VERTEX
8
1
10
27.104610
20
3.893532
0
VERTEX
8
1
10
27.090710
20
3.895683
0
VERTEX
8
1
10
27.090710
20
4.402328
0
VERTEX
8
1
10
27.091450
20
4.404388
0
VERTEX
8
1
10
27.679585
20
4.404396
0
VERTEX
8
1
10
27.679592
20
5.099365
0
VERTEX
8
1
10
27.675709
20
5.099922
0
VERTEX
8
1
10
26.900150
20
5.099930
0
VERTEX
8
1
10
26.897335
20
5.099762
0
VERTEX
8
1
10
26.897335
20
4.997391
0
VERTEX
8
1
10
26.883854
20
3.035561
0
VERTEX
8
1
10
26.885204
20
3.034325
0
VERTEX
8
1
10
27.132565
20
3.027351
0
VERTEX
8
1
10
27.133373
20
3.025764
0
VERTEX
8
1
10
27.140049
20
2.163147
0
VERTEX
8
1
10
26.856998
20
2.156136
42
-0.166750
0
VERTEX
8
1
10
26.711285
20
2.394264
0
VERTEX
8
1
10
26.704563
20
2.397308
42
-0.124370
0
VERTEX
8
1
10
26.539852
20
2.163139
0
VERTEX
8
1
10
26.223080
20
2.170189
0
VERTEX
8
1
10
26.223072
20
2.175873
0
VERTEX
8
1
10
26.236439
20
3.039246
0
VERTEX
8
1
10
26.237110
20
3.041367
0
VERTEX
8
1
10
26.497746
20
3.034401
0
VERTEX
8
1
10
26.499470
20
3.034622
0
VERTEX
8
1
10
26.499470
20
3.877266
42
0.109432
0
VERTEX
8
1
10
26.357922
20
4.094162
42
0.082730
0
VERTEX
8
1
10
26.294415
20
4.133621
0
VERTEX
8
1
10
26.288898
20
4.143112
0
VERTEX
8
1
10
26.299793
20
4.153206
0
VERTEX
8
1
10
26.311970
20
4.162689
42
0.080563
0
VERTEX
8
1
10
26.443356
20
4.264679
42
0.185856
0
VERTEX
8
1
10
26.498158
20
4.444695
42
-0.006056
0
VERTEX
8
1
10
26.492718
20
5.092842
0
VERTEX
8
1
10
26.223469
20
5.092903
0
VERTEX
8
1
10
26.223003
20
5.095581
0
VERTEX
8
1
10
26.229679
20
5.931374
0
VERTEX
8
1
10
26.229893
20
5.935997
0
VERTEX
8
1
10
26.512943
20
5.943031
42
-0.246902
0
VERTEX
8
1
10
26.699284
20
5.709862
0
VERTEX
8
1
10
26.705738
20
5.717903
0
VERTEX
8
1
10
26.714062
20
5.749710
42
-0.248799
0
VERTEX
8
1
10
26.891232
20
5.943031
0
VERTEX
8
1
10
27.699802
20
5.943031
42
-0.177993
0
VERTEX
8
1
10
27.989285
20
5.760254
42
-0.161307
0
VERTEX
8
1
10
28.063297
20
5.523216
42
0.005073
0
SEQEND
0
ENDSEC
0
EOF
