0
SECTION
2
HEADER
9
$EXTMIN
10
0.913940
20
0.423553
9
$EXTMAX
10
24.440872
20
18.242035
0
ENDSEC
0
SECTION
2
TABLES
0
TABLE
2
LTYPE
70
1
0
LTYPE
2
0
70
0
3
Solid Line
72
65
73
0
40
0.0
0
ENDTAB
0
TABLE
2
LAYER
70
1
0
LAYER
2
1
70
0
62
7
6
0
0
ENDTAB
0
ENDSEC
0
SECTION
2
BLOCKS
0
ENDSEC
0
SECTION
2
ENTITIES
0
POLYLINE
8
1
66
1
70
1
0
VERTEX
8
1
10
12.445618
20
11.945587
42
-0.248765
0
VERTEX
8
1
10
12.427353
20
11.931557
42
0.001591
0
VERTEX
8
1
10
11.205627
20
11.821007
42
0.014400
0
VERTEX
8
1
10
11.147446
20
11.820419
42
-0.012299
0
VERTEX
8
1
10
10.999695
20
11.533890
0
VERTEX
8
1
10
10.999146
20
11.520859
42
-0.026447
0
VERTEX
8
1
10
11.197021
20
11.453461
42
-0.247143
0
VERTEX
8
1
10
11.239609
20
11.411018
0
VERTEX
8
1
10
11.238159
20
11.399223
42
-0.145930
0
VERTEX
8
1
10
11.155304
20
11.328506
42
0.062524
0
VERTEX
8
1
10
11.026047
20
11.242958
42
0.131245
0
VERTEX
8
1
10
11.009171
20
11.207993
42
-0.016490
0
VERTEX
8
1
10
11.257690
20
11.290474
42
-0.661108
0
VERTEX
8
1
10
11.271118
20
11.268608
42
-0.300364
0
VERTEX
8
1
10
11.232727
20
11.217583
0
VERTEX
8
1
10
11.213287
20
11.206123
42
0.069367
0
VERTEX
8
1
10
11.127808
20
11.150200
0
VERTEX
8
1
10
11.112640
20
11.141151
0
VERTEX
8
1
10
11.087555
20
11.124489
0
VERTEX
8
1
10
11.141418
20
11.095802
42
-0.382925
0
VERTEX
8
1
10
11.171631
20
11.004288
0
VERTEX
8
1
10
11.166718
20
10.987808
42
-0.091727
0
VERTEX
8
1
10
11.022354
20
10.792030
0
VERTEX
8
1
10
11.026260
20
10.759781
0
VERTEX
8
1
10
11.596069
20
10.136871
42
-0.215776
0
VERTEX
8
1
10
11.629639
20
10.092216
42
-0.299540
0
VERTEX
8
1
10
11.620819
20
10.080742
42
-0.040107
0
VERTEX
8
1
10
11.384171
20
10.265091
0
VERTEX
8
1
10
11.329651
20
10.312294
42
0.010650
0
VERTEX
8
1
10
10.897705
20
10.631317
0
VERTEX
8
1
10
10.905136
20
10.613914
42
0.108988
0
VERTEX
8
1
10
11.050995
20
10.496811
42
-0.033312
0
VERTEX
8
1
10
11.215439
20
10.381592
42
-0.138879
0
VERTEX
8
1
10
11.271774
20
10.300507
42
-0.332435
0
VERTEX
8
1
10
11.233429
20
10.221527
42
-0.085224
0
VERTEX
8
1
10
11.068420
20
10.157387
42
0.031517
0
VERTEX
8
1
10
10.881805
20
10.097122
42
0.331306
0
VERTEX
8
1
10
10.854919
20
10.041573
0
VERTEX
8
1
10
10.860596
20
10.016022
42
0.051865
0
VERTEX
8
1
10
10.976852
20
9.815491
42
-0.055964
0
VERTEX
8
1
10
11.062347
20
9.646782
42
-0.119932
0
VERTEX
8
1
10
11.072784
20
9.485611
42
-0.198842
0
VERTEX
8
1
10
11.040466
20
9.463493
42
0.389499
0
VERTEX
8
1
10
10.987350
20
9.301559
0
VERTEX
8
1
10
10.997070
20
9.270653
42
-0.008916
0
VERTEX
8
1
10
11.111557
20
9.000320
42
-0.089593
0
VERTEX
8
1
10
11.136673
20
8.833359
0
VERTEX
8
1
10
11.132706
20
8.828598
0
VERTEX
8
1
10
11.126404
20
8.832184
0
VERTEX
8
1
10
11.114777
20
8.847595
42
0.085105
0
VERTEX
8
1
10
11.032944
20
8.944801
42
0.317446
0
VERTEX
8
1
10
10.976669
20
8.944290
42
0.267198
0
VERTEX
8
1
10
10.929794
20
8.820320
0
VERTEX
8
1
10
10.937485
20
8.778633
42
0.058969
0
VERTEX
8
1
10
11.050583
20
8.538109
42
-0.043309
0
VERTEX
8
1
10
11.176987
20
8.278297
42
-0.161862
0
VERTEX
8
1
10
11.180878
20
8.039551
42
-0.063729
0
VERTEX
8
1
10
11.057739
20
7.739769
42
0.004320
0
VERTEX
8
1
10
10.892090
20
7.416550
42
0.057131
0
VERTEX
8
1
10
10.831680
20
7.227814
42
0.152594
0
VERTEX
8
1
10
10.860214
20
7.048637
42
-0.113765
0
VERTEX
8
1
10
10.889236
20
6.840767
42
-0.116124
0
VERTEX
8
1
10
10.729401
20
6.241470
0
VERTEX
8
1
10
10.705856
20
6.203217
42
0.095983
0
VERTEX
8
1
10
10.528641
20
5.836304
42
-0.031874
0
VERTEX
8
1
10
10.422745
20
5.521164
42
-0.190830
0
VERTEX
8
1
10
10.322998
20
5.411812
0
VERTEX
8
1
10
10.298004
20
5.410721
0
VERTEX
8
1
10
10.285019
20
5.429405
0
VERTEX
8
1
10
10.282700
20
5.465416
0
VERTEX
8
1
10
10.289719
20
5.516296
42
-0.039650
0
VERTEX
8
1
10
10.462982
20
6.020180
42
0.005494
0
VERTEX
8
1
10
10.623215
20
6.418152
0
VERTEX
8
1
10
10.623932
20
6.431503
0
VERTEX
8
1
10
10.618408
20
6.435036
0
VERTEX
8
1
10
10.607208
20
6.429962
0
VERTEX
8
1
10
10.583572
20
6.410599
0
VERTEX
8
1
10
10.560593
20
6.390442
42
-0.043073
0
VERTEX
8
1
10
10.317230
20
6.179489
42
-0.055599
0
VERTEX
8
1
10
10.233337
20
6.138969
0
VERTEX
8
1
10
10.208054
20
6.135971
0
VERTEX
8
1
10
10.196198
20
6.144768
0
VERTEX
8
1
10
10.196182
20
6.164047
0
VERTEX
8
1
10
10.206451
20
6.192505
42
-0.030480
0
VERTEX
8
1
10
10.393799
20
6.480721
42
0.028517
0
VERTEX
8
1
10
10.525345
20
6.695190
42
0.097990
0
VERTEX
8
1
10
10.557129
20
6.799843
0
VERTEX
8
1
10
10.554367
20
6.811737
0
VERTEX
8
1
10
10.546310
20
6.812134
0
VERTEX
8
1
10
10.533463
20
6.802277
42
0.041828
0
VERTEX
8
1
10
10.397110
20
6.616219
42
-0.023664
0
VERTEX
8
1
10
10.186691
20
6.335182
0
VERTEX
8
1
10
10.160217
20
6.288857
42
0.081023
0
VERTEX
8
1
10
10.103317
20
6.019730
42
0.034168
0
VERTEX
8
1
10
10.097122
20
5.617226
42
-0.005051
0
VERTEX
8
1
10
10.123718
20
4.899025
42
-0.025466
0
VERTEX
8
1
10
10.137985
20
4.227119
0
VERTEX
8
1
10
10.134018
20
4.178078
0
VERTEX
8
1
10
10.128723
20
4.129158
42
-0.152276
0
VERTEX
8
1
10
10.014099
20
3.878235
0
VERTEX
8
1
10
9.986816
20
3.845245
42
-0.032885
0
VERTEX
8
1
10
9.672684
20
3.554642
0
VERTEX
8
1
10
9.648468
20
3.531555
0
VERTEX
8
1
10
9.625458
20
3.507271
42
-0.068116
0
VERTEX
8
1
10
9.413620
20
3.301224
42
-0.121578
0
VERTEX
8
1
10
9.368790
20
3.286209
0
VERTEX
8
1
10
9.359238
20
3.292496
0
VERTEX
8
1
10
9.354462
20
3.306427
0
VERTEX
8
1
10
9.355164
20
3.328827
42
-0.107886
0
VERTEX
8
1
10
9.461304
20
3.558365
42
-0.031404
0
VERTEX
8
1
10
9.745056
20
3.893051
42
0.151382
0
VERTEX
8
1
10
9.925980
20
4.313881
42
0.084302
0
VERTEX
8
1
10
9.919342
20
4.394302
42
0.398455
0
VERTEX
8
1
10
9.880569
20
4.409897
42
0.105167
0
VERTEX
8
1
10
9.768768
20
4.334541
42
0.058121
0
VERTEX
8
1
10
9.407730
20
3.928925
42
0.014126
0
VERTEX
8
1
10
9.131882
20
3.531319
42
0.129945
0
VERTEX
8
1
10
9.028397
20
3.157402
42
0.003265
0
VERTEX
8
1
10
9.021057
20
2.779137
42
-0.050953
0
VERTEX
8
1
10
8.993134
20
2.607681
42
-0.335046
0
VERTEX
8
1
10
8.968887
20
2.582184
0
VERTEX
8
1
10
8.960510
20
2.588074
42
-0.044233
0
VERTEX
8
1
10
8.907089
20
2.684685
42
0.104600
0
VERTEX
8
1
10
8.872818
20
2.722839
0
VERTEX
8
1
10
8.861160
20
2.723923
0
VERTEX
8
1
10
8.849792
20
2.715302
42
0.093709
0
VERTEX
8
1
10
8.809937
20
2.600136
42
0.024940
0
VERTEX
8
1
10
8.760300
20
2.245262
42
0.199048
0
VERTEX
8
1
10
8.644897
20
2.181679
42
0.203603
0
VERTEX
8
1
10
8.637085
20
2.110840
42
-0.441542
0
VERTEX
8
1
10
8.554169
20
2.009399
42
-0.222019
0
VERTEX
8
1
10
8.441345
20
2.042381
42
0.477171
0
VERTEX
8
1
10
8.305313
20
2.012093
42
0.115761
0
VERTEX
8
1
10
8.283112
20
1.941833
0
VERTEX
8
1
10
8.280991
20
1.897018
42
-0.252573
0
VERTEX
8
1
10
8.256607
20
1.842606
42
-0.220510
0
VERTEX
8
1
10
8.220566
20
1.844368
42
-0.063048
0
VERTEX
8
1
10
8.103226
20
1.918915
42
0.461964
0
VERTEX
8
1
10
8.059464
20
1.895691
42
0.070497
0
VERTEX
8
1
10
8.035461
20
1.803696
0
VERTEX
8
1
10
8.011139
20
1.602737
0
VERTEX
8
1
10
8.006302
20
1.582909
42
-0.685301
0
VERTEX
8
1
10
7.979675
20
1.577179
42
-0.096424
0
VERTEX
8
1
10
7.915604
20
1.685532
42
-0.030878
0
VERTEX
8
1
10
7.803650
20
1.993263
0
VERTEX
8
1
10
7.800888
20
1.995522
0
VERTEX
8
1
10
7.798248
20
1.993629
0
VERTEX
8
1
10
7.773926
20
1.941566
42
-0.229116
0
VERTEX
8
1
10
7.659637
20
1.859749
42
-0.376902
0
VERTEX
8
1
10
7.634064
20
1.884979
42
-0.127493
0
VERTEX
8
1
10
7.652557
20
2.006424
42
-0.026738
0
VERTEX
8
1
10
7.705612
20
2.139694
42
0.654097
0
VERTEX
8
1
10
7.674225
20
2.174942
0
VERTEX
8
1
10
7.660065
20
2.174469
42
0.074487
0
VERTEX
8
1
10
7.505264
20
2.117798
0
VERTEX
8
1
10
7.487320
20
2.113335
0
VERTEX
8
1
10
7.476456
20
2.117973
0
VERTEX
8
1
10
7.472031
20
2.130692
42
-0.112297
0
VERTEX
8
1
10
7.513779
20
2.257378
42
-0.056722
0
VERTEX
8
1
10
7.720413
20
2.588219
0
VERTEX
8
1
10
7.731003
20
2.605042
42
0.524968
0
VERTEX
8
1
10
7.711105
20
2.670052
0
VERTEX
8
1
10
7.695786
20
2.675156
42
0.043032
0
VERTEX
8
1
10
7.541626
20
2.683167
0
VERTEX
8
1
10
7.523682
20
2.687119
0
VERTEX
8
1
10
7.515198
20
2.695084
0
VERTEX
8
1
10
7.515167
20
2.706741
0
VERTEX
8
1
10
7.522614
20
2.721771
42
-0.055227
0
VERTEX
8
1
10
7.646881
20
2.845535
42
0.033508
0
VERTEX
8
1
10
7.799988
20
3.003296
42
0.103230
0
VERTEX
8
1
10
7.858475
20
3.119156
42
0.433986
0
VERTEX
8
1
10
7.831894
20
3.155609
0
VERTEX
8
1
10
7.813568
20
3.157074
42
0.080126
0
VERTEX
8
1
10
7.665726
20
3.123329
0
VERTEX
8
1
10
7.644531
20
3.118523
0
VERTEX
8
1
10
7.634827
20
3.128067
0
VERTEX
8
1
10
7.636215
20
3.151413
42
-0.055913
0
VERTEX
8
1
10
7.724716
20
3.345497
42
-0.002759
0
VERTEX
8
1
10
8.026321
20
3.861572
0
VERTEX
8
1
10
8.039230
20
3.887482
42
0.205200
0
VERTEX
8
1
10
8.018555
20
4.238228
42
0.123922
0
VERTEX
8
1
10
7.952896
20
4.305191
0
VERTEX
8
1
10
7.929352
20
4.311607
0
VERTEX
8
1
10
7.905869
20
4.302048
0
VERTEX
8
1
10
7.882538
20
4.278160
0
VERTEX
8
1
10
7.859482
20
4.241875
42
0.048968
0
VERTEX
8
1
10
7.751328
20
3.941818
0
VERTEX
8
1
10
7.663666
20
3.620567
42
-0.103301
0
VERTEX
8
1
10
7.560028
20
3.411423
42
-0.011482
0
VERTEX
8
1
10
7.232986
20
2.983536
42
0.121389
0
VERTEX
8
1
10
7.155136
20
2.813362
42
0.086599
0
VERTEX
8
1
10
7.081497
20
1.812622
0
VERTEX
8
1
10
7.092041
20
1.737236
42
0.069928
0
VERTEX
8
1
10
7.261017
20
1.135742
42
-0.062486
0
VERTEX
8
1
10
7.338776
20
0.905952
42
-0.181263
0
VERTEX
8
1
10
7.331833
20
0.859711
42
-0.327768
0
VERTEX
8
1
10
7.284225
20
0.865906
42
-0.059496
0
VERTEX
8
1
10
7.151489
20
0.979240
0
VERTEX
8
1
10
7.135086
20
0.989853
0
VERTEX
8
1
10
7.122528
20
0.989525
0
VERTEX
8
1
10
7.113358
20
0.979370
42
0.100396
0
VERTEX
8
1
10
7.101807
20
0.845551
42
-0.024999
0
VERTEX
8
1
10
7.103165
20
0.543358
42
-0.127751
0
VERTEX
8
1
10
7.075409
20
0.425697
0
VERTEX
8
1
10
7.067429
20
0.423553
0
VERTEX
8
1
10
7.059326
20
0.430794
0
VERTEX
8
1
10
7.051102
20
0.446236
42
-0.018823
0
VERTEX
8
1
10
6.978333
20
0.719040
42
0.066502
0
VERTEX
8
1
10
6.931564
20
0.837273
42
0.508550
0
VERTEX
8
1
10
6.899246
20
0.840790
42
0.080741
0
VERTEX
8
1
10
6.831375
20
0.691711
42
-0.056034
0
VERTEX
8
1
10
6.752594
20
0.526489
0
VERTEX
8
1
10
6.739807
20
0.517990
0
VERTEX
8
1
10
6.729538
20
0.522514
0
VERTEX
8
1
10
6.721527
20
0.538559
42
-0.064532
0
VERTEX
8
1
10
6.706329
20
0.719597
42
0.016602
0
VERTEX
8
1
10
6.699524
20
1.087486
0
VERTEX
8
1
10
6.695099
20
1.115860
0
VERTEX
8
1
10
6.688004
20
1.127831
0
VERTEX
8
1
10
6.678391
20
1.124573
42
0.101046
0
VERTEX
8
1
10
6.637314
20
1.042038
42
-0.002650
0
VERTEX
8
1
10
6.492584
20
0.629005
0
VERTEX
8
1
10
6.473465
20
0.586014
0
VERTEX
8
1
10
6.452515
20
0.543877
0
VERTEX
8
1
10
6.437912
20
0.546463
0
VERTEX
8
1
10
6.427429
20
0.570671
0
VERTEX
8
1
10
6.420914
20
0.606522
0
VERTEX
8
1
10
6.418076
20
0.652466
42
-0.078766
0
VERTEX
8
1
10
6.556152
20
1.394356
0
VERTEX
8
1
10
6.571518
20
1.427803
42
0.094306
0
VERTEX
8
1
10
6.633820
20
1.630363
42
0.055913
0
VERTEX
8
1
10
6.662643
20
2.313217
0
VERTEX
8
1
10
6.655975
20
2.360016
0
VERTEX
8
1
10
6.647324
20
2.393364
0
VERTEX
8
1
10
6.636703
20
2.411209
42
-0.071252
0
VERTEX
8
1
10
6.409561
20
2.017509
0
VERTEX
8
1
10
6.398041
20
2.006134
0
VERTEX
8
1
10
6.385818
20
1.995514
0
VERTEX
8
1
10
6.404007
20
2.026634
42
0.087592
0
VERTEX
8
1
10
6.463028
20
2.321861
42
0.023022
0
VERTEX
8
1
10
6.466995
20
2.841805
0
VERTEX
8
1
10
6.461914
20
2.858009
0
VERTEX
8
1
10
6.454086
20
2.861938
0
VERTEX
8
1
10
6.443863
20
2.855240
0
VERTEX
8
1
10
6.431580
20
2.839630
42
0.007750
0
VERTEX
8
1
10
6.311142
20
2.611946
42
-0.070202
0
VERTEX
8
1
10
6.270813
20
2.561165
0
VERTEX
8
1
10
6.260040
20
2.569214
0
VERTEX
8
1
10
6.260101
20
2.629044
42
-0.133303
0
VERTEX
8
1
10
6.459106
20
3.171989
42
-0.090678
0
VERTEX
8
1
10
6.663864
20
3.393509
42
0.154609
0
VERTEX
8
1
10
6.773621
20
3.590630
0
VERTEX
8
1
10
6.782669
20
3.627853
42
0.002394
0
VERTEX
8
1
10
6.837051
20
3.959236
0
VERTEX
8
1
10
6.836319
20
3.981621
42
-0.082362
0
VERTEX
8
1
10
6.261887
20
3.332893
0
VERTEX
8
1
10
6.225525
20
3.299423
42
0.191423
0
VERTEX
8
1
10
6.102127
20
3.059448
42
-0.114811
0
VERTEX
8
1
10
6.078018
20
3.000465
0
VERTEX
8
1
10
6.067780
20
3.022583
0
VERTEX
8
1
10
6.064026
20
3.073532
0
VERTEX
8
1
10
6.067154
20
3.127357
0
VERTEX
8
1
10
6.076508
20
3.183380
0
VERTEX
8
1
10
6.086792
20
3.223534
42
-0.126391
0
VERTEX
8
1
10
6.416901
20
3.761124
42
0.120190
0
VERTEX
8
1
10
6.607681
20
3.990578
42
0.037990
0
VERTEX
8
1
10
6.746002
20
4.304237
0
VERTEX
8
1
10
6.771393
20
4.366226
42
0.010799
0
VERTEX
8
1
10
6.982452
20
4.835770
42
0.052072
0
VERTEX
8
1
10
7.034592
20
5.026535
0
VERTEX
8
1
10
7.036438
20
5.063522
42
-0.019241
0
VERTEX
8
1
10
7.015091
20
5.203491
42
-0.010455
0
VERTEX
8
1
10
7.004227
20
5.541321
42
0.090843
0
VERTEX
8
1
10
6.980148
20
5.652802
42
0.233851
0
VERTEX
8
1
10
6.940674
20
5.668518
0
VERTEX
8
1
10
6.940399
20
5.666618
42
-0.460260
0
VERTEX
8
1
10
6.856125
20
5.485497
0
VERTEX
8
1
10
6.839645
20
5.479118
0
VERTEX
8
1
10
6.822845
20
5.473671
0
VERTEX
8
1
10
6.762054
20
5.354004
0
VERTEX
8
1
10
6.760910
20
5.352150
42
0.269472
0
VERTEX
8
1
10
6.711716
20
5.337547
42
0.061784
0
VERTEX
8
1
10
6.658173
20
5.294891
42
-0.261972
0
VERTEX
8
1
10
6.655975
20
5.263252
42
-0.061061
0
VERTEX
8
1
10
6.603821
20
5.178040
0
VERTEX
8
1
10
6.601944
20
5.179420
42
0.347398
0
VERTEX
8
1
10
6.541382
20
5.224129
42
0.214375
0
VERTEX
8
1
10
6.483765
20
5.208656
42
0.224793
0
VERTEX
8
1
10
6.480820
20
5.175316
0
VERTEX
8
1
10
6.487289
20
5.152161
42
-0.117653
0
VERTEX
8
1
10
6.507996
20
5.002243
42
-0.253052
0
VERTEX
8
1
10
6.456085
20
4.929932
42
0.066314
0
VERTEX
8
1
10
6.290588
20
4.800354
0
VERTEX
8
1
10
6.303116
20
4.802971
42
-0.248577
0
VERTEX
8
1
10
6.378876
20
4.794762
0
VERTEX
8
1
10
6.385666
20
4.787025
42
-0.626993
0
VERTEX
8
1
10
6.369186
20
4.734528
0
VERTEX
8
1
10
6.344467
20
4.727425
0
VERTEX
8
1
10
6.319427
20
4.721626
42
0.032556
0
VERTEX
8
1
10
6.143112
20
4.691177
42
-0.191021
0
VERTEX
8
1
10
6.195648
20
4.655457
42
-0.616066
0
VERTEX
8
1
10
6.165756
20
4.613739
0
VERTEX
8
1
10
6.154526
20
4.614365
42
-0.007945
0
VERTEX
8
1
10
5.971268
20
4.658157
42
0.057132
0
VERTEX
8
1
10
5.880920
20
4.667496
0
VERTEX
8
1
10
5.880905
20
4.664963
42
-0.428266
0
VERTEX
8
1
10
5.885880
20
4.578766
42
-0.103723
0
VERTEX
8
1
10
5.854401
20
4.544334
0
VERTEX
8
1
10
5.852417
20
4.546967
42
0.268784
0
VERTEX
8
1
10
5.723312
20
4.693138
42
0.273147
0
VERTEX
8
1
10
5.677536
20
4.666222
42
-0.180544
0
VERTEX
8
1
10
5.546982
20
4.583191
0
VERTEX
8
1
10
5.568146
20
4.614624
42
0.430647
0
VERTEX
8
1
10
5.550644
20
4.686745
42
0.175578
0
VERTEX
8
1
10
5.500885
20
4.684341
0
VERTEX
8
1
10
5.480392
20
4.679558
42
-0.129680
0
VERTEX
8
1
10
5.347855
20
4.664810
0
VERTEX
8
1
10
5.347000
20
4.666832
0
VERTEX
8
1
10
5.347183
20
4.669029
42
0.287061
0
VERTEX
8
1
10
5.317764
20
4.806068
42
0.405971
0
VERTEX
8
1
10
5.281921
20
4.795204
0
VERTEX
8
1
10
5.265671
20
4.774147
42
-0.006083
0
VERTEX
8
1
10
5.180054
20
4.636528
42
-0.621510
0
VERTEX
8
1
10
5.139999
20
4.640022
0
VERTEX
8
1
10
5.132446
20
4.650986
0
VERTEX
8
1
10
5.118042
20
4.676498
42
0.140418
0
VERTEX
8
1
10
4.978516
20
4.826660
42
-0.168744
0
VERTEX
8
1
10
4.912659
20
4.838318
0
VERTEX
8
1
10
4.832214
20
4.873550
42
-0.531407
0
VERTEX
8
1
10
4.821518
20
4.894089
42
0.167368
0
VERTEX
8
1
10
4.851868
20
5.004745
42
0.043790
0
VERTEX
8
1
10
4.823044
20
5.180061
0
VERTEX
8
1
10
4.821350
20
5.179108
42
-0.116779
0
VERTEX
8
1
10
4.791092
20
5.092575
42
-0.565463
0
VERTEX
8
1
10
4.710052
20
5.112617
42
-0.040829
0
VERTEX
8
1
10
4.718781
20
5.249435
42
0.198623
0
VERTEX
8
1
10
4.706375
20
5.311615
42
0.248448
0
VERTEX
8
1
10
4.673965
20
5.317345
0
VERTEX
8
1
10
4.651199
20
5.311409
42
-0.112497
0
VERTEX
8
1
10
4.487686
20
5.288155
42
-0.309111
0
VERTEX
8
1
10
4.482590
20
5.294472
42
0.225782
0
VERTEX
8
1
10
4.474030
20
5.400322
42
0.065439
0
VERTEX
8
1
10
4.435806
20
5.469894
0
VERTEX
8
1
10
4.433502
20
5.469528
42
-0.302802
0
VERTEX
8
1
10
4.390991
20
5.456917
42
-0.079540
0
VERTEX
8
1
10
4.289490
20
5.505692
0
VERTEX
8
1
10
4.289169
20
5.509102
0
VERTEX
8
1
10
4.290390
20
5.512306
42
0.249049
0
VERTEX
8
1
10
4.344604
20
5.637352
42
0.062751
0
VERTEX
8
1
10
4.340576
20
5.714912
0
VERTEX
8
1
10
4.319809
20
5.678574
42
-0.479088
0
VERTEX
8
1
10
4.219955
20
5.654732
42
-0.203457
0
VERTEX
8
1
10
4.206253
20
5.701813
42
0.069649
0
VERTEX
8
1
10
4.187469
20
5.874878
0
VERTEX
8
1
10
4.186157
20
5.875488
0
VERTEX
8
1
10
4.182663
20
5.869423
42
-0.841043
0
VERTEX
8
1
10
4.118484
20
5.877693
42
-0.106706
0
VERTEX
8
1
10
4.142227
20
5.976891
42
-0.033465
0
VERTEX
8
1
10
4.198288
20
6.099281
0
VERTEX
8
1
10
4.093842
20
6.141045
0
VERTEX
8
1
10
4.077377
20
6.148926
42
-0.599028
0
VERTEX
8
1
10
4.069107
20
6.193314
0
VERTEX
8
1
10
4.076920
20
6.203819
42
0.166767
0
VERTEX
8
1
10
4.137360
20
6.303673
42
0.093294
0
VERTEX
8
1
10
4.123093
20
6.376732
0
VERTEX
8
1
10
4.120789
20
6.377487
42
-0.284028
0
VERTEX
8
1
10
4.045929
20
6.382858
42
-0.146716
0
VERTEX
8
1
10
3.995056
20
6.425369
0
VERTEX
8
1
10
3.994461
20
6.432106
42
-0.132033
0
VERTEX
8
1
10
4.036407
20
6.484009
42
0.218199
0
VERTEX
8
1
10
4.073471
20
6.611099
42
0.052876
0
VERTEX
8
1
10
4.070724
20
6.637756
42
-0.618855
0
VERTEX
8
1
10
4.043091
20
6.642342
42
-0.088699
0
VERTEX
8
1
10
4.015213
20
6.703796
0
VERTEX
8
1
10
4.017075
20
6.706604
42
0.240966
0
VERTEX
8
1
10
4.064377
20
6.764763
42
0.060454
0
VERTEX
8
1
10
4.088669
20
6.842171
0
VERTEX
8
1
10
4.086685
20
6.843948
0
VERTEX
8
1
10
4.082733
20
6.843208
42
-0.319689
0
VERTEX
8
1
10
3.902466
20
6.854187
42
-0.361105
0
VERTEX
8
1
10
3.907684
20
6.886650
0
VERTEX
8
1
10
3.915894
20
6.897690
0
VERTEX
8
1
10
3.925079
20
6.907921
42
0.168727
0
VERTEX
8
1
10
4.025833
20
7.064743
0
VERTEX
8
1
10
4.023544
20
7.066216
42
-0.235700
0
VERTEX
8
1
10
3.912659
20
7.094994
42
-0.045316
0
VERTEX
8
1
10
3.862610
20
7.137794
42
-0.530422
0
VERTEX
8
1
10
3.867538
20
7.143951
42
0.273060
0
VERTEX
8
1
10
3.976135
20
7.238159
42
0.061715
0
VERTEX
8
1
10
3.993225
20
7.282417
0
VERTEX
8
1
10
3.990479
20
7.284515
0
VERTEX
8
1
10
3.985321
20
7.284874
42
-0.233958
0
VERTEX
8
1
10
3.848450
20
7.325348
42
-0.048942
0
VERTEX
8
1
10
3.790665
20
7.377022
0
VERTEX
8
1
10
3.792450
20
7.378532
0
VERTEX
8
1
10
3.839432
20
7.376450
42
0.302410
0
VERTEX
8
1
10
3.930405
20
7.451981
0
VERTEX
8
1
10
3.927200
20
7.453926
42
-0.183973
0
VERTEX
8
1
10
3.764404
20
7.530144
42
-0.037691
0
VERTEX
8
1
10
3.727524
20
7.564926
0
VERTEX
8
1
10
3.729446
20
7.566124
42
0.231274
0
VERTEX
8
1
10
3.812943
20
7.583549
42
0.154256
0
VERTEX
8
1
10
3.837387
20
7.640663
0
VERTEX
8
1
10
3.833939
20
7.642937
42
-0.148927
0
VERTEX
8
1
10
3.710892
20
7.712662
42
-0.025336
0
VERTEX
8
1
10
3.642761
20
7.782074
0
VERTEX
8
1
10
3.676132
20
7.768906
42
0.615335
0
VERTEX
8
1
10
3.698563
20
7.789215
42
0.157293
0
VERTEX
8
1
10
3.693390
20
7.816917
0
VERTEX
8
1
10
3.690125
20
7.817703
42
-0.168429
0
VERTEX
8
1
10
3.539810
20
7.873169
0
VERTEX
8
1
10
3.538864
20
7.880150
0
VERTEX
8
1
10
3.543640
20
7.886024
0
VERTEX
8
1
10
3.557663
20
7.892159
0
VERTEX
8
1
10
3.572159
20
7.897133
42
0.069090
0
VERTEX
8
1
10
3.700668
20
7.933105
42
0.279380
0
VERTEX
8
1
10
3.724747
20
7.983772
42
-0.240130
0
VERTEX
8
1
10
3.618561
20
8.034554
42
-0.394946
0
VERTEX
8
1
10
3.639236
20
8.075272
0
VERTEX
8
1
10
3.653076
20
8.085831
42
0.127210
0
VERTEX
8
1
10
3.770172
20
8.189445
42
0.111327
0
VERTEX
8
1
10
3.787842
20
8.285393
0
VERTEX
8
1
10
3.785553
20
8.286461
42
-0.292871
0
VERTEX
8
1
10
3.741913
20
8.311302
42
-0.069478
0
VERTEX
8
1
10
3.693344
20
8.406624
0
VERTEX
8
1
10
3.693710
20
8.410545
42
0.357547
0
VERTEX
8
1
10
3.752518
20
8.452919
42
0.077043
0
VERTEX
8
1
10
3.775803
20
8.531273
0
VERTEX
8
1
10
3.767410
20
8.524857
0
VERTEX
8
1
10
3.758606
20
8.519020
42
-0.636238
0
VERTEX
8
1
10
3.675217
20
8.557938
0
VERTEX
8
1
10
3.677734
20
8.566940
0
VERTEX
8
1
10
3.707809
20
8.637901
42
0.085412
0
VERTEX
8
1
10
3.721497
20
8.744980
42
-0.122135
0
VERTEX
8
1
10
3.762512
20
8.872757
0
VERTEX
8
1
10
3.772827
20
8.883583
42
0.193863
0
VERTEX
8
1
10
3.843109
20
8.985794
42
-0.021258
0
VERTEX
8
1
10
3.887985
20
9.103966
0
VERTEX
8
1
10
3.888306
20
9.111778
0
VERTEX
8
1
10
3.880630
20
9.111214
0
VERTEX
8
1
10
3.865982
20
9.103386
42
0.007016
0
VERTEX
8
1
10
3.597076
20
8.896416
42
-0.047286
0
VERTEX
8
1
10
3.518509
20
8.850349
42
0.276113
0
VERTEX
8
1
10
3.455658
20
8.810547
42
0.005040
0
VERTEX
8
1
10
3.367325
20
8.669373
0
VERTEX
8
1
10
3.349655
20
8.646530
0
VERTEX
8
1
10
3.337097
20
8.638451
42
-0.050472
0
VERTEX
8
1
10
3.025543
20
8.559486
42
-0.136255
0
VERTEX
8
1
10
2.975845
20
8.565666
0
VERTEX
8
1
10
2.969696
20
8.574158
0
VERTEX
8
1
10
3.000046
20
8.595955
0
VERTEX
8
1
10
3.012238
20
8.611145
42
0.182485
0
VERTEX
8
1
10
3.015625
20
8.718689
42
0.042838
0
VERTEX
8
1
10
2.946640
20
8.890060
42
-0.056238
0
VERTEX
8
1
10
2.704285
20
8.812271
42
-0.167594
0
VERTEX
8
1
10
2.661346
20
8.817291
0
VERTEX
8
1
10
2.656830
20
8.826157
0
VERTEX
8
1
10
2.686172
20
8.829887
0
VERTEX
8
1
10
2.716141
20
8.835938
42
0.446025
0
VERTEX
8
1
10
2.772079
20
8.939606
0
VERTEX
8
1
10
2.766861
20
8.960464
42
0.152401
0
VERTEX
8
1
10
2.605255
20
9.164124
42
-0.104851
0
VERTEX
8
1
10
2.466217
20
9.315239
42
-0.102067
0
VERTEX
8
1
10
2.448380
20
9.390724
42
-0.075823
0
VERTEX
8
1
10
2.561432
20
9.341034
42
0.105481
0
VERTEX
8
1
10
2.670105
20
9.307785
42
0.295167
0
VERTEX
8
1
10
2.710831
20
9.338493
42
0.222606
0
VERTEX
8
1
10
2.705841
20
9.426743
42
0.174592
0
VERTEX
8
1
10
2.590866
20
9.517952
42
0.148299
0
VERTEX
8
1
10
2.130829
20
9.531311
42
-0.348332
0
VERTEX
8
1
10
2.058273
20
9.584343
0
VERTEX
8
1
10
2.049210
20
9.605637
42
-0.038892
0
VERTEX
8
1
10
2.009659
20
9.834564
42
0.338889
0
VERTEX
8
1
10
1.957077
20
9.882149
42
0.095395
0
VERTEX
8
1
10
1.808502
20
9.863350
42
-0.061871
0
VERTEX
8
1
10
1.566757
20
9.828735
42
-0.172841
0
VERTEX
8
1
10
1.501999
20
9.842903
0
VERTEX
8
1
10
1.501114
20
9.851807
0
VERTEX
8
1
10
1.507736
20
9.862175
0
VERTEX
8
1
10
1.520889
20
9.873680
42
-0.090936
0
VERTEX
8
1
10
1.791748
20
9.976051
42
0.349401
0
VERTEX
8
1
10
1.816513
20
9.995926
0
VERTEX
8
1
10
1.812195
20
10.004997
0
VERTEX
8
1
10
1.799545
20
10.017845
0
VERTEX
8
1
10
1.786087
20
10.029823
42
-0.074655
0
VERTEX
8
1
10
1.668243
20
10.129402
42
-0.174502
0
VERTEX
8
1
10
1.658249
20
10.169487
0
VERTEX
8
1
10
1.668076
20
10.179726
0
VERTEX
8
1
10
1.686188
20
10.185204
0
VERTEX
8
1
10
1.711563
20
10.186356
0
VERTEX
8
1
10
1.750519
20
10.182121
0
VERTEX
8
1
10
1.789185
20
10.175705
42
-0.068168
0
VERTEX
8
1
10
2.261734
20
9.993073
42
0.150137
0
VERTEX
8
1
10
2.504929
20
9.959679
42
0.029618
0
VERTEX
8
1
10
2.679245
20
9.982483
0
VERTEX
8
1
10
2.697220
20
9.989342
42
0.407275
0
VERTEX
8
1
10
2.756607
20
10.112488
42
0.209007
0
VERTEX
8
1
10
2.686661
20
10.209145
42
0.067803
0
VERTEX
8
1
10
2.548172
20
10.228439
42
-0.072935
0
VERTEX
8
1
10
2.348969
20
10.264496
42
-0.151695
0
VERTEX
8
1
10
2.262024
20
10.326576
0
VERTEX
8
1
10
2.299179
20
10.326447
42
0.234692
0
VERTEX
8
1
10
2.473709
20
10.398331
42
0.274934
0
VERTEX
8
1
10
2.493820
20
10.623352
42
0.208118
0
VERTEX
8
1
10
2.423157
20
10.667290
42
-0.020782
0
VERTEX
8
1
10
2.255432
20
10.710815
42
0.056432
0
VERTEX
8
1
10
2.086914
20
10.726662
0
VERTEX
8
1
10
2.056259
20
10.729523
42
-0.170374
0
VERTEX
8
1
10
1.927444
20
10.781326
42
-0.054820
0
VERTEX
8
1
10
1.769897
20
10.917671
42
-0.108526
0
VERTEX
8
1
10
1.742859
20
10.972107
0
VERTEX
8
1
10
1.744675
20
10.986420
0
VERTEX
8
1
10
1.752563
20
10.999016
42
-0.274164
0
VERTEX
8
1
10
1.858444
20
11.013496
42
-0.031213
0
VERTEX
8
1
10
1.991928
20
10.945366
42
0.325092
0
VERTEX
8
1
10
2.167526
20
10.960854
42
-0.085108
0
VERTEX
8
1
10
2.552582
20
11.147331
42
0.054465
0
VERTEX
8
1
10
2.678741
20
11.204102
0
VERTEX
8
1
10
2.692368
20
11.215141
42
0.386723
0
VERTEX
8
1
10
2.716110
20
11.335625
42
0.359043
0
VERTEX
8
1
10
2.603683
20
11.398254
42
-0.009193
0
VERTEX
8
1
10
2.228668
20
11.382889
42
-0.129673
0
VERTEX
8
1
10
1.976532
20
11.448715
0
VERTEX
8
1
10
1.988068
20
11.454163
42
0.082563
0
VERTEX
8
1
10
2.162216
20
11.510406
42
-0.010486
0
VERTEX
8
1
10
2.420013
20
11.630196
42
-0.134933
0
VERTEX
8
1
10
2.653473
20
11.660980
42
0.017191
0
VERTEX
8
1
10
2.928879
20
11.632439
42
0.118792
0
VERTEX
8
1
10
3.065033
20
11.669487
42
-0.095473
0
VERTEX
8
1
10
3.262604
20
11.720657
0
VERTEX
8
1
10
3.289093
20
11.719398
42
-0.063772
0
VERTEX
8
1
10
3.493637
20
11.657906
42
0.116455
0
VERTEX
8
1
10
3.627853
20
11.644112
42
0.523853
0
VERTEX
8
1
10
3.671005
20
11.716591
42
0.323355
0
VERTEX
8
1
10
3.579712
20
11.788078
42
-0.156413
0
VERTEX
8
1
10
3.517105
20
11.834282
42
0.072053
0
VERTEX
8
1
10
3.302109
20
12.021255
42
0.273333
0
VERTEX
8
1
10
3.132828
20
12.013611
0
VERTEX
8
1
10
3.111389
20
12.001839
0
VERTEX
8
1
10
3.090347
20
11.989342
42
-0.168862
0
VERTEX
8
1
10
2.904312
20
11.925331
42
0.018542
0
VERTEX
8
1
10
2.533112
20
11.905838
42
0.023302
0
VERTEX
8
1
10
2.400970
20
11.871727
42
-0.252109
0
VERTEX
8
1
10
2.304871
20
11.898216
0
VERTEX
8
1
10
2.251526
20
11.938492
42
0.332094
0
VERTEX
8
1
10
2.185562
20
11.932144
42
-0.009986
0
VERTEX
8
1
10
2.116425
20
11.870422
42
-0.346637
0
VERTEX
8
1
10
2.070816
20
11.871735
42
0.359060
0
VERTEX
8
1
10
2.028656
20
11.861336
0
VERTEX
8
1
10
2.015701
20
11.849823
0
VERTEX
8
1
10
2.003815
20
11.837227
42
-0.157159
0
VERTEX
8
1
10
1.843857
20
11.711571
42
-0.101125
0
VERTEX
8
1
10
1.757782
20
11.705276
42
-0.519944
0
VERTEX
8
1
10
1.731720
20
11.746712
0
VERTEX
8
1
10
1.741547
20
11.770073
42
-0.051012
0
VERTEX
8
1
10
1.902084
20
11.960701
0
VERTEX
8
1
10
1.932724
20
11.994049
42
0.079383
0
VERTEX
8
1
10
2.048676
20
12.149193
42
-0.385222
0
VERTEX
8
1
10
2.122025
20
12.177345
0
VERTEX
8
1
10
2.197998
20
12.149612
42
0.097911
0
VERTEX
8
1
10
2.373856
20
12.148849
42
0.207270
0
VERTEX
8
1
10
2.396439
20
12.174599
0
VERTEX
8
1
10
2.411774
20
12.214668
42
-0.321351
0
VERTEX
8
1
10
2.474960
20
12.241928
42
-0.096329
0
VERTEX
8
1
10
2.596848
20
12.201881
42
0.235084
0
VERTEX
8
1
10
2.717773
20
12.228279
42
0.171480
0
VERTEX
8
1
10
2.930817
20
12.516724
0
VERTEX
8
1
10
2.929199
20
12.519432
0
VERTEX
8
1
10
2.924957
20
12.518982
42
-0.253703
0
VERTEX
8
1
10
2.732803
20
12.506706
42
-0.518822
0
VERTEX
8
1
10
2.727905
20
12.540894
42
-0.098188
0
VERTEX
8
1
10
2.843033
20
12.611916
42
-0.035779
0
VERTEX
8
1
10
3.132736
20
12.720200
42
-0.156647
0
VERTEX
8
1
10
3.326920
20
12.695038
0
VERTEX
8
1
10
3.358185
20
12.681847
42
0.124166
0
VERTEX
8
1
10
3.792694
20
12.573303
42
0.123834
0
VERTEX
8
1
10
3.892471
20
12.593018
42
0.567347
0
VERTEX
8
1
10
3.889252
20
12.627708
0
VERTEX
8
1
10
3.877350
20
12.637459
42
0.098525
0
VERTEX
8
1
10
3.684845
20
12.706635
0
VERTEX
8
1
10
3.676422
20
12.713837
0
VERTEX
8
1
10
3.678589
20
12.723587
0
VERTEX
8
1
10
3.690079
20
12.735710
42
-0.040222
0
VERTEX
8
1
10
3.853668
20
12.831856
42
0.044937
0
VERTEX
8
1
10
4.045471
20
12.959190
0
VERTEX
8
1
10
4.066177
20
12.979912
0
VERTEX
8
1
10
4.085358
20
13.002052
0
VERTEX
8
1
10
4.080170
20
13.164780
42
-0.008182
0
VERTEX
8
1
10
3.989487
20
15.731041
0
VERTEX
8
1
10
3.767532
20
15.732849
42
-0.006603
0
VERTEX
8
1
10
1.703598
20
15.665871
42
0.016095
0
VERTEX
8
1
10
1.514450
20
15.366287
42
-0.316475
0
VERTEX
8
1
10
1.339111
20
15.309578
42
-0.091602
0
VERTEX
8
1
10
1.197418
20
15.375244
42
-0.051451
0
VERTEX
8
1
10
0.960526
20
15.899139
0
VERTEX
8
1
10
0.945435
20
15.937408
42
-0.151802
0
VERTEX
8
1
10
0.918060
20
16.144211
42
-0.094183
0
VERTEX
8
1
10
1.051773
20
16.497650
42
-0.025851
0
VERTEX
8
1
10
1.195557
20
16.723686
0
VERTEX
8
1
10
1.223053
20
16.748314
0
VERTEX
8
1
10
1.257751
20
16.753052
0
VERTEX
8
1
10
1.291443
20
16.749748
42
-0.166241
0
VERTEX
8
1
10
1.462112
20
16.622879
42
-0.050932
0
VERTEX
8
1
10
1.553452
20
16.476654
0
VERTEX
8
1
10
1.558167
20
16.475494
42
0.003335
0
VERTEX
8
1
10
3.910248
20
16.453789
0
VERTEX
8
1
10
3.978043
20
16.485825
0
VERTEX
8
1
10
3.975082
20
16.933311
42
0.016783
0
VERTEX
8
1
10
3.686630
20
17.122063
42
-0.358050
0
VERTEX
8
1
10
3.629761
20
17.321037
42
-0.081961
0
VERTEX
8
1
10
3.692001
20
17.443977
42
-0.054656
0
VERTEX
8
1
10
4.226944
20
17.673721
42
-0.160913
0
VERTEX
8
1
10
4.444977
20
17.714294
42
-0.098207
0
VERTEX
8
1
10
4.794678
20
17.585892
42
-0.028971
0
VERTEX
8
1
10
5.061157
20
17.409943
42
-0.258795
0
VERTEX
8
1
10
5.027817
20
17.252083
42
-0.111642
0
VERTEX
8
1
10
4.820374
20
17.087502
0
VERTEX
8
1
10
4.786957
20
17.070847
0
VERTEX
8
1
10
4.770309
20
16.500946
0
VERTEX
8
1
10
4.823654
20
16.447197
42
-0.005721
0
VERTEX
8
1
10
8.305420
20
16.349167
42
-0.007613
0
VERTEX
8
1
10
8.670731
20
16.326859
0
VERTEX
8
1
10
8.717224
20
16.316208
42
-0.288767
0
VERTEX
8
1
10
8.742722
20
16.264893
42
-0.194700
0
VERTEX
8
1
10
8.672562
20
16.206108
42
-0.063130
0
VERTEX
8
1
10
8.298843
20
16.109543
42
-0.016775
0
VERTEX
8
1
10
5.911163
20
15.859955
42
-0.004310
0
VERTEX
8
1
10
4.864609
20
15.789680
0
VERTEX
8
1
10
4.750168
20
15.741577
42
0.004042
0
VERTEX
8
1
10
4.725723
20
14.420204
0
VERTEX
8
1
10
4.711945
20
13.896965
0
VERTEX
8
1
10
4.713226
20
13.881958
42
-0.070669
0
VERTEX
8
1
10
4.835312
20
14.038612
0
VERTEX
8
1
10
4.845978
20
14.043976
0
VERTEX
8
1
10
4.857376
20
14.047562
42
0.207159
0
VERTEX
8
1
10
4.984314
20
14.111923
0
VERTEX
8
1
10
4.990112
20
14.123131
42
0.146870
0
VERTEX
8
1
10
4.991104
20
14.222580
0
VERTEX
8
1
10
4.989609
20
14.237930
42
-0.409386
0
VERTEX
8
1
10
5.043961
20
14.323883
42
-0.235160
0
VERTEX
8
1
10
5.102722
20
14.296997
0
VERTEX
8
1
10
5.122696
20
14.280510
42
0.097843
0
VERTEX
8
1
10
5.232544
20
14.197708
42
0.213629
0
VERTEX
8
1
10
5.328827
20
14.213196
42
0.076405
0
VERTEX
8
1
10
5.468185
20
14.326256
42
-0.167838
0
VERTEX
8
1
10
5.702850
20
14.454056
42
0.462458
0
VERTEX
8
1
10
5.744888
20
14.524712
42
0.182897
0
VERTEX
8
1
10
5.618134
20
14.695435
0
VERTEX
8
1
10
5.600098
20
14.710907
0
VERTEX
8
1
10
5.599487
20
14.713097
0
VERTEX
8
1
10
5.600998
20
14.714478
42
0.397133
0
VERTEX
8
1
10
5.659058
20
14.778862
42
0.103181
0
VERTEX
8
1
10
5.653625
20
14.894051
42
-0.079203
0
VERTEX
8
1
10
5.659012
20
15.026535
42
-0.469219
0
VERTEX
8
1
10
5.686752
20
15.046402
42
-0.115152
0
VERTEX
8
1
10
5.768845
20
14.962051
42
0.015051
0
VERTEX
8
1
10
5.969101
20
14.682594
42
0.085301
0
VERTEX
8
1
10
6.016663
20
14.682259
42
-0.099305
0
VERTEX
8
1
10
6.055511
20
14.670441
42
-0.006014
0
VERTEX
8
1
10
5.469986
20
15.302383
42
-0.340046
0
VERTEX
8
1
10
5.470062
20
15.353828
42
-0.383427
0
VERTEX
8
1
10
5.503891
20
15.347275
0
VERTEX
8
1
10
5.533325
20
15.326836
42
0.000293
0
VERTEX
8
1
10
6.320404
20
14.744637
42
0.200585
0
VERTEX
8
1
10
6.373505
20
14.756409
0
VERTEX
8
1
10
6.394547
20
14.766968
42
-0.084780
0
VERTEX
8
1
10
6.604202
20
14.865158
0
VERTEX
8
1
10
6.616470
20
14.867210
42
-0.088067
0
VERTEX
8
1
10
6.683670
20
14.932602
42
-0.391527
0
VERTEX
8
1
10
6.746719
20
14.916382
42
-0.065388
0
VERTEX
8
1
10
6.771912
20
14.881554
0
VERTEX
8
1
10
6.784546
20
14.877106
0
VERTEX
8
1
10
6.956512
20
14.881432
0
VERTEX
8
1
10
6.969376
20
14.892616
42
-0.209878
0
VERTEX
8
1
10
7.109940
20
14.983757
42
-0.008230
0
VERTEX
8
1
10
7.421387
20
15.799316
0
VERTEX
8
1
10
7.451309
20
15.868202
42
-0.256835
0
VERTEX
8
1
10
7.484283
20
15.907547
42
-0.346298
0
VERTEX
8
1
10
7.500046
20
15.872986
0
VERTEX
8
1
10
7.496567
20
15.853310
42
-0.005986
0
VERTEX
8
1
10
7.384537
20
15.368980
42
0.006669
0
VERTEX
8
1
10
7.294357
20
14.864685
0
VERTEX
8
1
10
7.320496
20
14.855659
0
VERTEX
8
1
10
7.325226
20
14.859283
0
VERTEX
8
1
10
7.438980
20
14.980385
42
-0.105356
0
VERTEX
8
1
10
7.594482
20
15.058243
0
VERTEX
8
1
10
7.636642
20
15.071159
42
0.026731
0
VERTEX
8
1
10
7.760178
20
15.101486
42
0.262028
0
VERTEX
8
1
10
7.779175
20
15.128555
42
-0.091757
0
VERTEX
8
1
10
7.850754
20
15.277519
0
VERTEX
8
1
10
8.226212
20
15.940987
42
-0.053593
0
VERTEX
8
1
10
8.321152
20
16.085182
42
-0.470294
0
VERTEX
8
1
10
8.337784
20
16.065582
42
-0.096392
0
VERTEX
8
1
10
8.320862
20
15.989120
42
0.006547
0
VERTEX
8
1
10
7.978882
20
15.117531
0
VERTEX
8
1
10
7.971344
20
15.093796
0
VERTEX
8
1
10
7.969757
20
15.086220
42
0.544142
0
VERTEX
8
1
10
7.996857
20
15.055199
42
0.106296
0
VERTEX
8
1
10
8.267090
20
15.002655
0
VERTEX
8
1
10
8.400650
20
15.003334
42
-0.106635
0
VERTEX
8
1
10
8.856354
20
14.903793
42
-0.016799
0
VERTEX
8
1
10
8.769043
20
15.259315
0
VERTEX
8
1
10
8.793198
20
15.254387
42
-0.068511
0
VERTEX
8
1
10
9.044937
20
15.124847
42
-0.040307
0
VERTEX
8
1
10
9.395157
20
14.848724
0
VERTEX
8
1
10
9.854935
20
15.126518
0
VERTEX
8
1
10
9.859940
20
15.127274
42
-0.715191
0
VERTEX
8
1
10
9.869934
20
15.109970
42
-0.046356
0
VERTEX
8
1
10
9.839752
20
15.077324
42
-0.007194
0
VERTEX
8
1
10
9.477890
20
14.753006
0
VERTEX
8
1
10
9.512726
20
14.713615
0
VERTEX
8
1
10
9.528366
20
14.717918
42
-0.091189
0
VERTEX
8
1
10
9.848495
20
14.721481
42
-0.168312
0
VERTEX
8
1
10
10.122070
20
14.541222
42
-0.022528
0
VERTEX
8
1
10
10.199310
20
14.436401
42
-0.154919
0
VERTEX
8
1
10
10.334824
20
14.372742
42
-0.084053
0
VERTEX
8
1
10
10.413666
20
14.435417
42
0.006382
0
VERTEX
8
1
10
11.236786
20
14.993927
0
VERTEX
8
1
10
11.316956
20
15.046585
42
-0.925393
0
VERTEX
8
1
10
11.333206
20
15.029930
0
VERTEX
8
1
10
11.329758
20
15.024849
42
0.022521
0
VERTEX
8
1
10
11.187973
20
14.882713
42
0.000800
0
VERTEX
8
1
10
10.617889
20
14.313057
42
0.050543
0
VERTEX
8
1
10
10.594223
20
14.275299
42
-0.010251
0
VERTEX
8
1
10
11.713333
20
14.149963
0
VERTEX
8
1
10
11.726715
20
14.146973
42
-1.024618
0
VERTEX
8
1
10
11.723785
20
14.113640
0
VERTEX
8
1
10
11.179810
20
14.089058
0
VERTEX
8
1
10
11.145096
20
14.086624
42
0.006396
0
VERTEX
8
1
10
10.536804
20
14.013756
0
VERTEX
8
1
10
10.469238
20
14.013046
42
0.230226
0
VERTEX
8
1
10
10.457672
20
13.993011
42
-0.033539
0
VERTEX
8
1
10
10.474579
20
13.861084
0
VERTEX
8
1
10
10.487152
20
13.812935
42
-0.030156
0
VERTEX
8
1
10
10.547012
20
13.391762
42
-0.059382
0
VERTEX
8
1
10
10.614426
20
13.282387
42
-0.160754
0
VERTEX
8
1
10
10.614639
20
13.265579
42
-0.106718
0
VERTEX
8
1
10
10.979599
20
13.164490
42
-0.444385
0
VERTEX
8
1
10
10.999527
20
13.062187
0
VERTEX
8
1
10
10.983047
20
13.038429
42
-0.085516
0
VERTEX
8
1
10
10.800980
20
12.889816
42
0.314615
0
VERTEX
8
1
10
10.776642
20
12.814774
42
0.092696
0
VERTEX
8
1
10
10.793716
20
12.752785
42
-0.005810
0
VERTEX
8
1
10
11.001923
20
12.709274
42
-0.094565
0
VERTEX
8
1
10
11.078156
20
12.755516
42
-0.472052
0
VERTEX
8
1
10
11.105026
20
12.724342
42
-0.019108
0
VERTEX
8
1
10
11.108673
20
12.678764
0
VERTEX
8
1
10
11.144485
20
12.665489
42
-0.256551
0
VERTEX
8
1
10
11.297302
20
12.304726
42
-0.077783
0
VERTEX
8
1
10
11.278381
20
12.213562
42
0.064650
0
VERTEX
8
1
10
11.259018
20
12.117813
42
0.296255
0
VERTEX
8
1
10
11.275482
20
12.099846
0
VERTEX
8
1
10
11.313599
20
12.084122
42
0.039551
0
VERTEX
8
1
10
11.501648
20
12.054260
42
0.000788
0
VERTEX
8
1
10
12.435684
20
11.957222
42
-0.196457
0
SEQEND
0
POLYLINE
8
1
66
1
70
1
0
VERTEX
8
1
10
8.761398
20
14.410202
0
VERTEX
8
1
10
8.792206
20
14.414482
0
VERTEX
8
1
10
8.788712
20
14.420296
0
VERTEX
8
1
10
8.636963
20
14.463097
0
VERTEX
8
1
10
8.623611
20
14.465111
42
0.185432
0
VERTEX
8
1
10
8.653320
20
14.411751
42
0.126171
0
SEQEND
0
POLYLINE
8
1
66
1
70
1
0
VERTEX
8
1
10
9.846298
20
14.294319
42
0.064387
0
VERTEX
8
1
10
9.953262
20
14.353607
42
0.235712
0
VERTEX
8
1
10
9.767365
20
14.489059
42
0.135206
0
VERTEX
8
1
10
9.651657
20
14.471542
0
VERTEX
8
1
10
9.720673
20
14.287476
42
0.166093
0
SEQEND
0
POLYLINE
8
1
66
1
70
1
0
VERTEX
8
1
10
10.219955
20
13.809013
0
VERTEX
8
1
10
10.221710
20
13.811310
0
VERTEX
8
1
10
10.221817
20
13.814888
42
0.063571
0
VERTEX
8
1
10
10.130051
20
14.088287
42
0.153499
0
VERTEX
8
1
10
10.072983
20
14.152519
42
-0.069510
0
VERTEX
8
1
10
9.934448
20
14.068344
42
-0.005379
0
VERTEX
8
1
10
9.860931
20
14.055588
0
VERTEX
8
1
10
9.876343
20
14.030846
42
-0.028136
0
VERTEX
8
1
10
10.166702
20
13.783012
42
0.072778
0
SEQEND
0
LINE
8
1
10
4.430923
20
17.255142
11
4.431183
21
16.375687
0
LINE
8
1
10
4.431320
20
15.931229
11
4.432037
21
13.570114
0
POLYLINE
8
1
66
1
0
VERTEX
8
1
10
4.771103
20
17.210114
0
VERTEX
8
1
10
4.381119
20
17.435654
0
VERTEX
8
1
10
3.895691
20
17.196228
0
SEQEND
0
POLYLINE
8
1
66
1
0
VERTEX
8
1
10
5.028198
20
6.791336
42
0.010295
0
VERTEX
8
1
10
4.851089
20
6.836685
0
VERTEX
8
1
10
4.843765
20
6.846611
0
VERTEX
8
1
10
4.845551
20
6.861237
42
-0.006268
0
VERTEX
8
1
10
4.920120
20
6.989075
42
0.152404
0
VERTEX
8
1
10
4.942215
20
7.138458
0
VERTEX
8
1
10
4.938965
20
7.136322
0
VERTEX
8
1
10
4.931305
20
7.124710
42
-0.594347
0
VERTEX
8
1
10
4.797424
20
7.122093
42
-0.092982
0
VERTEX
8
1
10
4.777069
20
7.178108
0
VERTEX
8
1
10
4.762756
20
7.242424
0
VERTEX
8
1
10
4.763351
20
7.253021
42
-0.157833
0
VERTEX
8
1
10
4.824585
20
7.304344
0
VERTEX
8
1
10
4.838425
20
7.313896
42
0.635034
0
VERTEX
8
1
10
4.822708
20
7.484596
42
-0.016732
0
VERTEX
8
1
10
4.728836
20
7.532639
42
0.033623
0
VERTEX
8
1
10
4.686325
20
7.543915
0
VERTEX
8
1
10
4.677505
20
7.552322
0
VERTEX
8
1
10
4.677948
20
7.564590
42
-0.023736
0
VERTEX
8
1
10
4.745926
20
7.665672
42
0.260947
0
VERTEX
8
1
10
4.753876
20
7.774445
42
-0.356763
0
VERTEX
8
1
10
4.699081
20
7.775032
42
-0.428054
0
VERTEX
8
1
10
4.679489
20
7.811333
42
-0.045095
0
VERTEX
8
1
10
4.749786
20
7.877312
42
0.632332
0
VERTEX
8
1
10
4.740662
20
7.939232
42
0.093007
0
VERTEX
8
1
10
4.621567
20
7.919914
0
VERTEX
8
1
10
4.609222
20
7.917824
42
-0.494728
0
VERTEX
8
1
10
4.573425
20
7.939857
42
-0.088913
0
VERTEX
8
1
10
4.569839
20
8.027206
0
VERTEX
8
1
10
4.681320
20
8.082954
42
0.196439
0
VERTEX
8
1
10
4.896439
20
8.134613
42
0.650477
0
VERTEX
8
1
10
4.884933
20
8.182404
42
0.112778
0
VERTEX
8
1
10
4.783188
20
8.194954
42
-0.103281
0
VERTEX
8
1
10
4.673355
20
8.227936
42
0.067171
0
VERTEX
8
1
10
4.515228
20
8.270599
42
-0.087506
0
VERTEX
8
1
10
4.445969
20
8.295410
0
VERTEX
8
1
10
4.439941
20
8.306099
0
VERTEX
8
1
10
4.442383
20
8.317253
0
VERTEX
8
1
10
4.451950
20
8.328491
42
-0.118531
0
VERTEX
8
1
10
4.582916
20
8.377335
42
0.163510
0
VERTEX
8
1
10
4.667419
20
8.434128
0
VERTEX
8
1
10
4.676575
20
8.439743
0
VERTEX
8
1
10
4.686752
20
8.443153
42
0.256596
0
VERTEX
8
1
10
4.787201
20
8.508888
42
0.058866
0
VERTEX
8
1
10
4.810410
20
8.553482
42
0.504035
0
VERTEX
8
1
10
4.793610
20
8.574471
42
0.030201
0
VERTEX
8
1
10
4.675156
20
8.569153
42
-0.152797
0
VERTEX
8
1
10
4.623062
20
8.589287
42
0.034605
0
VERTEX
8
1
10
4.488190
20
8.676613
42
-0.611348
0
VERTEX
8
1
10
4.484604
20
8.714165
42
0.049643
0
VERTEX
8
1
10
4.573120
20
8.787071
42
-0.134939
0
VERTEX
8
1
10
4.697906
20
8.830925
0
VERTEX
8
1
10
4.703552
20
8.829453
42
0.440051
0
VERTEX
8
1
10
4.771545
20
8.840034
42
0.105110
0
VERTEX
8
1
10
4.805923
20
8.902260
42
0.066219
0
VERTEX
8
1
10
4.633804
20
8.944504
42
-0.346640
0
VERTEX
8
1
10
4.599365
20
8.992104
42
-0.079098
0
VERTEX
8
1
10
4.597641
20
9.055229
0
SEQEND
0
POLYLINE
8
1
66
1
0
VERTEX
8
1
10
6.347641
20
6.610779
42
-0.174446
0
VERTEX
8
1
10
6.266159
20
6.693329
0
VERTEX
8
1
10
6.263718
20
6.706131
42
0.632387
0
VERTEX
8
1
10
6.230789
20
6.738289
42
0.147490
0
VERTEX
8
1
10
6.176956
20
6.704941
0
VERTEX
8
1
10
6.163437
20
6.701500
42
-0.104072
0
VERTEX
8
1
10
6.042053
20
6.749702
42
0.046483
0
VERTEX
8
1
10
5.933701
20
6.858917
0
VERTEX
8
1
10
5.919388
20
6.865021
0
VERTEX
8
1
10
5.903015
20
6.863113
42
0.108979
0
VERTEX
8
1
10
5.805283
20
6.777229
42
-0.275495
0
VERTEX
8
1
10
5.692581
20
6.803276
0
VERTEX
8
1
10
5.664307
20
6.841408
42
0.325545
0
VERTEX
8
1
10
5.580795
20
6.860046
0
VERTEX
8
1
10
5.423264
20
6.816948
42
-0.465965
0
VERTEX
8
1
10
5.382111
20
6.842995
42
-0.089474
0
VERTEX
8
1
10
5.375000
20
6.908531
0
VERTEX
8
1
10
5.368042
20
6.920311
0
VERTEX
8
1
10
5.354141
20
6.920998
42
0.088828
0
VERTEX
8
1
10
5.236542
20
6.833000
0
SEQEND
0
POLYLINE
8
1
66
1
0
VERTEX
8
1
10
6.908951
20
5.817764
42
-0.481649
0
VERTEX
8
1
10
6.885773
20
5.805641
0
VERTEX
8
1
10
6.872574
20
5.811714
42
0.108391
0
VERTEX
8
1
10
6.794174
20
5.845879
42
-0.279504
0
VERTEX
8
1
10
6.763016
20
5.901360
42
-0.025825
0
VERTEX
8
1
10
6.755142
20
5.970245
0
VERTEX
8
1
10
6.618820
20
5.929382
0
VERTEX
8
1
10
6.604019
20
5.927032
42
-0.099168
0
VERTEX
8
1
10
6.450623
20
5.985214
0
VERTEX
8
1
10
6.449860
20
6.063301
42
0.375089
0
VERTEX
8
1
10
6.396194
20
6.099777
42
0.056122
0
VERTEX
8
1
10
6.301010
20
6.095589
0
VERTEX
8
1
10
6.158951
20
6.095551
42
-0.151487
0
VERTEX
8
1
10
6.116867
20
6.227577
42
0.452919
0
VERTEX
8
1
10
6.086670
20
6.251373
42
0.114949
0
VERTEX
8
1
10
6.006607
20
6.220810
42
0.053118
0
VERTEX
8
1
10
5.815567
20
6.200897
0
VERTEX
8
1
10
5.785797
20
6.188042
0
VERTEX
8
1
10
5.773407
20
6.189651
42
-0.375609
0
VERTEX
8
1
10
5.744049
20
6.306778
0
VERTEX
8
1
10
5.745956
20
6.316605
0
VERTEX
8
1
10
5.740051
20
6.322800
0
VERTEX
8
1
10
5.727890
20
6.325996
42
0.057492
0
VERTEX
8
1
10
5.560303
20
6.307877
42
-0.064339
0
VERTEX
8
1
10
5.425888
20
6.262268
42
-0.707147
0
VERTEX
8
1
10
5.403503
20
6.293358
42
0.046280
0
VERTEX
8
1
10
5.436676
20
6.388618
0
VERTEX
8
1
10
5.431641
20
6.392868
0
VERTEX
8
1
10
5.419785
20
6.385231
42
0.035826
0
VERTEX
8
1
10
5.296982
20
6.234352
0
VERTEX
8
1
10
5.131638
20
6.220573
0
VERTEX
8
1
10
5.214508
20
6.428871
0
SEQEND
0
POLYLINE
8
1
66
1
0
VERTEX
8
1
10
5.653198
20
5.694115
42
0.384549
0
VERTEX
8
1
10
5.662338
20
5.654968
42
0.047647
0
VERTEX
8
1
10
5.786072
20
5.556190
42
-0.047583
0
VERTEX
8
1
10
5.843185
20
5.501579
0
VERTEX
8
1
10
5.843246
20
5.497894
42
0.218133
0
VERTEX
8
1
10
5.790710
20
5.412148
42
-0.010146
0
VERTEX
8
1
10
5.778015
20
5.366440
0
VERTEX
8
1
10
5.772263
20
5.391327
42
0.751319
0
VERTEX
8
1
10
5.736328
20
5.389206
0
VERTEX
8
1
10
5.732849
20
5.377052
42
0.107411
0
VERTEX
8
1
10
5.750351
20
5.277702
42
-0.225318
0
VERTEX
8
1
10
5.632523
20
5.186295
0
VERTEX
8
1
10
5.618820
20
5.185730
42
-0.148357
0
VERTEX
8
1
10
5.526810
20
5.225060
0
VERTEX
8
1
10
5.473328
20
5.257584
42
-0.322039
0
VERTEX
8
1
10
5.413986
20
5.362968
42
0.264033
0
VERTEX
8
1
10
5.334503
20
5.471992
42
-0.153874
0
VERTEX
8
1
10
5.245377
20
5.585602
42
-0.222643
0
VERTEX
8
1
10
5.253571
20
5.608971
0
VERTEX
8
1
10
5.266281
20
5.628052
42
0.520577
0
VERTEX
8
1
10
5.243744
20
5.656822
42
0.061584
0
VERTEX
8
1
10
5.167084
20
5.666443
42
0.075360
0
VERTEX
8
1
10
5.123444
20
5.909607
42
-0.217491
0
VERTEX
8
1
10
5.085297
20
5.862900
0
VERTEX
8
1
10
5.068451
20
5.860802
0
VERTEX
8
1
10
5.055206
20
5.865570
0
VERTEX
8
1
10
5.050491
20
5.877441
0
VERTEX
8
1
10
5.052780
20
5.894836
42
-0.075504
0
VERTEX
8
1
10
5.139313
20
6.041336
0
SEQEND
0
POLYLINE
8
1
66
1
0
VERTEX
8
1
10
6.583755
20
5.708000
42
0.042595
0
VERTEX
8
1
10
6.344376
20
5.757225
42
-0.029257
0
VERTEX
8
1
10
6.254684
20
5.788628
42
-0.158606
0
VERTEX
8
1
10
6.110626
20
5.832413
42
0.086487
0
VERTEX
8
1
10
5.950638
20
5.878288
42
-0.192110
0
VERTEX
8
1
10
5.853607
20
5.937355
42
0.138734
0
VERTEX
8
1
10
5.758408
20
6.001907
42
-0.039530
0
VERTEX
8
1
10
5.583755
20
6.083000
0
SEQEND
0
POLYLINE
8
1
66
1
0
VERTEX
8
1
10
6.764313
20
5.708000
42
0.403993
0
VERTEX
8
1
10
6.729431
20
5.692986
0
VERTEX
8
1
10
6.722198
20
5.682701
42
-0.141439
0
VERTEX
8
1
10
6.638367
20
5.587425
42
-0.019480
0
VERTEX
8
1
10
6.456467
20
5.418678
0
VERTEX
8
1
10
6.455643
20
5.415939
42
-0.474239
0
VERTEX
8
1
10
6.469254
20
5.393433
42
-0.252662
0
VERTEX
8
1
10
6.394211
20
5.292572
42
-0.092437
0
VERTEX
8
1
10
6.311905
20
5.291176
0
VERTEX
8
1
10
6.300140
20
5.290482
0
VERTEX
8
1
10
6.287949
20
5.284027
42
0.052863
0
VERTEX
8
1
10
6.200607
20
5.171410
42
-0.124436
0
VERTEX
8
1
10
6.127884
20
5.105194
42
-0.397970
0
VERTEX
8
1
10
6.077652
20
5.125618
42
-0.094520
0
VERTEX
8
1
10
6.056000
20
5.193924
42
0.042342
0
VERTEX
8
1
10
6.148621
20
5.426666
42
-0.223832
0
VERTEX
8
1
10
6.250427
20
5.485779
0
SEQEND
0
POLYLINE
8
1
66
1
0
VERTEX
8
1
10
6.305984
20
7.069115
42
0.285667
0
VERTEX
8
1
10
6.267960
20
6.920364
42
0.126792
0
VERTEX
8
1
10
6.385666
20
6.730202
42
0.038474
0
VERTEX
8
1
10
6.565765
20
6.570091
42
-0.004026
0
VERTEX
8
1
10
6.912537
20
6.267891
0
VERTEX
8
1
10
6.953857
20
6.234779
0
VERTEX
8
1
10
6.995956
20
6.202652
42
0.145884
0
VERTEX
8
1
10
7.153549
20
6.136139
0
VERTEX
8
1
10
7.168015
20
6.137566
42
0.053651
0
VERTEX
8
1
10
7.294235
20
6.194534
42
0.179134
0
VERTEX
8
1
10
7.405121
20
6.326134
0
VERTEX
8
1
10
7.417114
20
6.356346
42
-0.004349
0
VERTEX
8
1
10
7.875427
20
7.902451
0
SEQEND
0
POLYLINE
8
1
66
1
0
VERTEX
8
1
10
6.903198
20
8.499672
42
0.130357
0
VERTEX
8
1
10
6.673126
20
8.530960
42
0.022794
0
VERTEX
8
1
10
6.469391
20
8.501961
42
-0.183501
0
VERTEX
8
1
10
6.303314
20
8.529793
42
-0.052215
0
VERTEX
8
1
10
6.134583
20
8.640312
42
-0.012558
0
VERTEX
8
1
10
5.834961
20
8.884186
42
-0.239946
0
VERTEX
8
1
10
5.736541
20
9.110779
0
SEQEND
0
POLYLINE
8
1
66
1
0
VERTEX
8
1
10
6.694870
20
8.652451
42
0.080206
0
VERTEX
8
1
10
6.604599
20
8.679466
0
VERTEX
8
1
10
6.395386
20
8.711090
42
-0.071334
0
VERTEX
8
1
10
6.190536
20
8.770584
42
-0.115172
0
VERTEX
8
1
10
5.972641
20
8.985779
0
SEQEND
0
POLYLINE
8
1
66
1
0
VERTEX
8
1
10
7.361542
20
8.694115
42
-0.035828
0
VERTEX
8
1
10
7.118454
20
8.747314
0
VERTEX
8
1
10
7.108063
20
8.753731
42
-0.594670
0
VERTEX
8
1
10
7.113403
20
8.780807
42
0.005369
0
VERTEX
8
1
10
7.201309
20
8.838753
42
0.694566
0
VERTEX
8
1
10
7.193939
20
8.858849
0
VERTEX
8
1
10
7.180374
20
8.863312
42
0.038094
0
VERTEX
8
1
10
6.969345
20
8.875656
42
-0.635207
0
VERTEX
8
1
10
6.945816
20
8.917496
42
-0.137678
0
VERTEX
8
1
10
7.032928
20
9.003014
0
VERTEX
8
1
10
7.043106
20
9.013550
0
VERTEX
8
1
10
7.043045
20
9.021614
0
VERTEX
8
1
10
7.034134
20
9.027557
0
VERTEX
8
1
10
7.017776
20
9.031685
42
0.010161
0
VERTEX
8
1
10
6.777954
20
9.039696
42
-0.236706
0
VERTEX
8
1
10
6.719116
20
9.063820
0
VERTEX
8
1
10
6.716705
20
9.071671
0
VERTEX
8
1
10
6.716614
20
9.079887
42
-0.241186
0
VERTEX
8
1
10
6.770050
20
9.128105
0
VERTEX
8
1
10
6.770187
20
9.133034
0
VERTEX
8
1
10
6.764603
20
9.138908
42
0.110509
0
VERTEX
8
1
10
6.542938
20
9.194847
0
VERTEX
8
1
10
6.527420
20
9.198067
42
-0.745865
0
VERTEX
8
1
10
6.518433
20
9.293129
0
VERTEX
8
1
10
6.520737
20
9.296791
42
0.134306
0
VERTEX
8
1
10
6.472839
20
9.316238
42
-0.011558
0
VERTEX
8
1
10
6.170959
20
9.394211
0
VERTEX
8
1
10
6.167130
20
9.397217
0
VERTEX
8
1
10
6.168137
20
9.400047
42
0.369275
0
VERTEX
8
1
10
6.200500
20
9.466797
0
VERTEX
8
1
10
6.192841
20
9.490273
0
VERTEX
8
1
10
6.171417
20
9.511490
0
VERTEX
8
1
10
6.134766
20
9.527252
42
0.071820
0
VERTEX
8
1
10
5.884186
20
9.547966
42
0.024395
0
VERTEX
8
1
10
5.569870
20
9.527451
0
SEQEND
0
POLYLINE
8
1
66
1
0
VERTEX
8
1
10
8.764313
20
7.846893
42
0.003725
0
VERTEX
8
1
10
8.447525
20
7.697159
42
-0.248373
0
VERTEX
8
1
10
8.230286
20
7.733475
42
-0.033982
0
VERTEX
8
1
10
8.160172
20
7.790138
0
VERTEX
8
1
10
8.172287
20
7.767395
0
VERTEX
8
1
10
8.169479
20
7.769394
42
-0.010198
0
VERTEX
8
1
10
7.986542
20
8.013557
0
SEQEND
0
POLYLINE
8
1
66
1
0
VERTEX
8
1
10
8.555984
20
7.916336
42
-0.124194
0
VERTEX
8
1
10
8.346863
20
7.869614
42
-0.246359
0
VERTEX
8
1
10
8.215317
20
7.966370
42
-0.056655
0
VERTEX
8
1
10
8.180985
20
8.041336
0
SEQEND
0
POLYLINE
8
1
66
1
0
VERTEX
8
1
10
9.292084
20
8.374672
42
-0.023487
0
VERTEX
8
1
10
8.958221
20
8.288895
0
VERTEX
8
1
10
8.943054
20
8.288239
42
-0.423051
0
VERTEX
8
1
10
8.912933
20
8.303040
0
VERTEX
8
1
10
8.912704
20
8.308502
0
VERTEX
8
1
10
8.916992
20
8.367790
42
0.382508
0
VERTEX
8
1
10
8.902893
20
8.396721
42
0.117895
0
VERTEX
8
1
10
8.813431
20
8.359436
42
-0.065985
0
VERTEX
8
1
10
8.640640
20
8.278610
0
VERTEX
8
1
10
8.625534
20
8.275398
42
-0.745862
0
VERTEX
8
1
10
8.602356
20
8.303169
42
-0.045613
0
VERTEX
8
1
10
8.626266
20
8.377373
0
VERTEX
8
1
10
8.627121
20
8.390739
0
VERTEX
8
1
10
8.619904
20
8.395332
0
VERTEX
8
1
10
8.605652
20
8.392471
42
0.024673
0
VERTEX
8
1
10
8.433945
20
8.295090
0
VERTEX
8
1
10
8.400040
20
8.277969
42
-0.159888
0
VERTEX
8
1
10
8.257385
20
8.248810
42
-0.395414
0
VERTEX
8
1
10
8.251465
20
8.267998
42
0.100858
0
VERTEX
8
1
10
8.262039
20
8.342796
0
VERTEX
8
1
10
8.251907
20
8.350578
0
VERTEX
8
1
10
8.235001
20
8.352371
0
VERTEX
8
1
10
8.212769
20
8.349182
42
0.057684
0
VERTEX
8
1
10
8.014313
20
8.263557
0
SEQEND
0
POLYLINE
8
1
66
1
0
VERTEX
8
1
10
7.680984
20
6.541336
0
VERTEX
8
1
10
8.772858
20
7.406700
42
0.145683
0
VERTEX
8
1
10
8.899643
20
7.586922
0
VERTEX
8
1
10
8.934708
20
7.690094
42
-0.058777
0
VERTEX
8
1
10
8.998978
20
7.791847
42
-0.016145
0
VERTEX
8
1
10
9.331909
20
8.172409
42
0.018704
0
VERTEX
8
1
10
9.441010
20
8.306129
42
0.122319
0
VERTEX
8
1
10
9.494476
20
8.473297
42
0.088242
0
VERTEX
8
1
10
9.472641
20
8.791336
0
SEQEND
0
POLYLINE
8
1
66
1
0
VERTEX
8
1
10
10.731918
20
10.721886
0
VERTEX
8
1
10
10.611786
20
10.795822
0
VERTEX
8
1
10
10.278198
20
10.545937
0
VERTEX
8
1
10
10.231979
20
10.185326
0
VERTEX
8
1
10
10.234039
20
10.182915
42
-0.013256
0
VERTEX
8
1
10
10.751282
20
9.691017
0
VERTEX
8
1
10
10.774689
20
9.664009
0
VERTEX
8
1
10
10.778061
20
9.656265
0
VERTEX
8
1
10
10.772491
20
9.653748
42
-0.060129
0
VERTEX
8
1
10
10.685928
20
9.670372
42
-0.013151
0
VERTEX
8
1
10
10.343353
20
9.777336
0
VERTEX
8
1
10
10.344162
20
9.773651
42
-0.012582
0
VERTEX
8
1
10
10.517593
20
9.137688
42
-0.041619
0
VERTEX
8
1
10
10.531509
20
9.039398
0
VERTEX
8
1
10
10.526138
20
9.037796
42
-0.047974
0
VERTEX
8
1
10
10.435486
20
9.178947
42
-0.008022
0
VERTEX
8
1
10
10.015152
20
9.956085
0
VERTEX
8
1
10
9.417526
20
9.629066
42
-0.034355
0
VERTEX
8
1
10
9.706726
20
9.457176
42
-0.060854
0
VERTEX
8
1
10
9.755859
20
9.409561
42
-0.659232
0
VERTEX
8
1
10
9.743973
20
9.384277
42
-0.072574
0
VERTEX
8
1
10
9.633926
20
9.380531
42
-0.017372
0
VERTEX
8
1
10
9.286575
20
9.423691
42
-0.009453
0
VERTEX
8
1
10
8.872772
20
8.579338
0
VERTEX
8
1
10
8.847229
20
8.535164
0
VERTEX
8
1
10
8.820389
20
8.491768
0
VERTEX
8
1
10
8.811005
20
8.483192
0
VERTEX
8
1
10
8.808121
20
8.493286
42
-0.033765
0
VERTEX
8
1
10
8.838867
20
8.689140
42
-0.005600
0
VERTEX
8
1
10
9.019623
20
9.512032
0
VERTEX
8
1
10
8.569107
20
9.530220
42
0.048408
0
VERTEX
8
1
10
8.565826
20
9.332237
0
VERTEX
8
1
10
8.564240
20
9.321007
42
-0.162613
0
VERTEX
8
1
10
8.455902
20
9.199585
0
VERTEX
8
1
10
8.435486
20
9.186363
42
-0.267969
0
VERTEX
8
1
10
8.321442
20
9.178780
42
-0.072421
0
VERTEX
8
1
10
8.139450
20
9.286598
0
VERTEX
8
1
10
7.292114
20
9.247063
0
VERTEX
8
1
10
7.102341
20
9.120087
0
VERTEX
8
1
10
7.139008
20
9.305374
0
VERTEX
8
1
10
6.898712
20
9.423683
0
VERTEX
8
1
10
6.731979
20
9.333282
42
0.171343
0
VERTEX
8
1
10
6.685608
20
9.592270
0
VERTEX
8
1
10
6.644714
20
9.612656
42
-0.079741
0
VERTEX
8
1
10
6.377686
20
9.868828
42
-0.042153
0
VERTEX
8
1
10
6.071823
20
10.319046
0
VERTEX
8
1
10
6.066498
20
10.319962
0
VERTEX
8
1
10
6.060669
20
10.312180
0
VERTEX
8
1
10
6.054367
20
10.296791
0
VERTEX
8
1
10
6.041519
20
10.249512
42
-0.019459
0
VERTEX
8
1
10
5.963272
20
9.939606
42
-0.159206
0
VERTEX
8
1
10
5.934753
20
9.897591
0
VERTEX
8
1
10
5.924805
20
9.902771
42
-0.083788
0
VERTEX
8
1
10
5.880783
20
10.036270
42
-0.014852
0
VERTEX
8
1
10
5.785675
20
10.610062
42
-0.036803
0
VERTEX
8
1
10
5.374405
20
10.478821
42
-0.086493
0
VERTEX
8
1
10
5.231262
20
10.466850
0
VERTEX
8
1
10
5.210129
20
10.473412
0
VERTEX
8
1
10
5.199142
20
10.484550
0
VERTEX
8
1
10
5.199112
20
10.499893
0
VERTEX
8
1
10
5.208771
20
10.518814
42
-0.078999
0
VERTEX
8
1
10
5.412445
20
10.679871
42
-0.042181
0
VERTEX
8
1
10
5.657318
20
10.809975
0
VERTEX
8
1
10
5.669708
20
10.813202
42
0.654485
0
VERTEX
8
1
10
5.688599
20
10.836205
0
VERTEX
8
1
10
5.685333
20
10.847870
42
0.056052
0
VERTEX
8
1
10
5.592667
20
10.999901
42
-0.025337
0
VERTEX
8
1
10
5.105713
20
11.347809
42
-0.039649
0
VERTEX
8
1
10
5.023712
20
11.429123
0
VERTEX
8
1
10
5.015686
20
11.445328
0
VERTEX
8
1
10
5.020142
20
11.454330
0
VERTEX
8
1
10
5.035721
20
11.456795
42
-0.063372
0
VERTEX
8
1
10
5.180679
20
11.416389
42
-0.013660
0
VERTEX
8
1
10
5.649826
20
11.214554
42
0.498064
0
VERTEX
8
1
10
5.680847
20
11.237762
42
0.157785
0
VERTEX
8
1
10
5.651871
20
11.419304
42
0.091391
0
VERTEX
8
1
10
5.524475
20
11.622719
42
0.009688
0
VERTEX
8
1
10
5.272018
20
11.822182
42
-0.013596
0
VERTEX
8
1
10
4.072876
20
11.308975
42
-0.022099
0
VERTEX
8
1
10
3.800766
20
11.219421
0
VERTEX
8
1
10
3.754898
20
11.212540
0
VERTEX
8
1
10
3.732956
20
11.218300
0
VERTEX
8
1
10
3.738693
20
11.237785
0
VERTEX
8
1
10
3.769501
20
11.269547
42
-0.032236
0
VERTEX
8
1
10
4.079010
20
11.485031
42
-0.011620
0
VERTEX
8
1
10
5.056671
20
12.061798
42
0.153574
0
VERTEX
8
1
10
5.103455
20
12.158234
42
0.007743
0
VERTEX
8
1
10
5.188721
20
12.615646
42
-0.073759
0
VERTEX
8
1
10
5.243271
20
12.715645
42
-0.025204
0
VERTEX
8
1
10
5.438034
20
12.966423
42
-0.012605
0
VERTEX
8
1
10
4.673767
20
13.025826
42
-0.064674
0
VERTEX
8
1
10
4.369690
20
13.105392
0
VERTEX
8
1
10
4.346649
20
13.119011
0
VERTEX
8
1
10
4.345337
20
13.131737
0
VERTEX
8
1
10
4.363297
20
13.143570
42
-0.056412
0
VERTEX
8
1
10
4.579605
20
13.182236
42
-0.019110
0
VERTEX
8
1
10
5.305679
20
13.222275
42
0.089626
0
VERTEX
8
1
10
5.546188
20
13.283531
42
-0.014031
0
VERTEX
8
1
10
5.714218
20
13.685646
42
-0.076693
0
VERTEX
8
1
10
5.886749
20
13.877090
42
-0.032501
0
VERTEX
8
1
10
6.110764
20
14.052422
0
VERTEX
8
1
10
6.128036
20
14.071014
42
0.111229
0
VERTEX
8
1
10
6.200455
20
14.287178
42
0.033255
0
VERTEX
8
1
10
6.225281
20
14.528091
0
SEQEND
0
POLYLINE
8
1
66
1
0
VERTEX
8
1
10
10.981918
20
11.073746
0
VERTEX
8
1
10
10.833755
20
10.992729
0
VERTEX
8
1
10
10.917084
20
10.888557
0
SEQEND
0
POLYLINE
8
1
66
1
0
VERTEX
8
1
10
8.259705
20
14.490410
42
-0.013503
0
VERTEX
8
1
10
7.842773
20
14.399971
0
VERTEX
8
1
10
7.797638
20
14.395370
42
-0.018087
0
VERTEX
8
1
10
7.243301
20
14.379158
42
0.057841
0
VERTEX
8
1
10
7.099228
20
14.349785
0
VERTEX
8
1
10
6.830658
20
14.197205
0
VERTEX
8
1
10
6.753708
20
13.876900
0
VERTEX
8
1
10
7.027847
20
13.934776
0
VERTEX
8
1
10
6.796722
20
13.684853
0
VERTEX
8
1
10
6.703979
20
13.231514
0
VERTEX
8
1
10
6.574875
20
13.517365
0
VERTEX
8
1
10
6.572906
20
13.516876
42
0.008739
0
VERTEX
8
1
10
6.204773
20
13.205994
0
VERTEX
8
1
10
6.177460
20
13.179062
42
0.121960
0
VERTEX
8
1
10
6.072662
20
13.032593
0
VERTEX
8
1
10
6.064850
20
13.007538
0
VERTEX
8
1
10
5.880188
20
12.442970
0
VERTEX
8
1
10
5.925507
20
12.044716
0
VERTEX
8
1
10
5.984375
20
11.831139
0
SEQEND
0
POLYLINE
8
1
66
1
0
VERTEX
8
1
10
6.101151
20
11.572632
0
VERTEX
8
1
10
6.297958
20
11.368881
0
VERTEX
8
1
10
7.371384
20
10.601028
0
VERTEX
8
1
10
7.946014
20
10.101349
0
VERTEX
8
1
10
8.078247
20
10.082184
42
-0.011498
0
VERTEX
8
1
10
7.802094
20
11.212326
42
-0.020258
0
VERTEX
8
1
10
7.760010
20
11.468346
0
VERTEX
8
1
10
7.760147
20
11.507713
0
VERTEX
8
1
10
7.768112
20
11.522957
0
VERTEX
8
1
10
7.784592
20
11.511711
0
VERTEX
8
1
10
7.807434
20
11.481873
42
-0.033412
0
VERTEX
8
1
10
7.980637
20
11.159103
42
-0.009665
0
VERTEX
8
1
10
8.333755
20
10.379295
42
-0.030732
0
VERTEX
8
1
10
8.665451
20
10.879875
42
-0.064095
0
VERTEX
8
1
10
8.805817
20
11.025490
0
VERTEX
8
1
10
8.834244
20
11.042397
0
VERTEX
8
1
10
9.805801
20
11.388702
42
-0.065119
0
VERTEX
8
1
10
9.700531
20
11.492439
0
VERTEX
8
1
10
9.696030
20
11.502724
42
-0.690571
0
VERTEX
8
1
10
9.711395
20
11.527046
0
VERTEX
8
1
10
9.726410
20
11.526962
0
VERTEX
8
1
10
10.126770
20
11.487297
42
0.164662
0
VERTEX
8
1
10
10.245163
20
11.513451
42
0.134174
0
VERTEX
8
1
10
10.264267
20
11.543427
42
0.004454
0
VERTEX
8
1
10
10.426361
20
12.101517
42
-0.022200
0
VERTEX
8
1
10
10.113037
20
11.736900
42
-0.058256
0
VERTEX
8
1
10
10.058777
20
11.694504
0
VERTEX
8
1
10
10.052521
20
11.697121
0
VERTEX
8
1
10
10.052887
20
11.712227
42
-0.039938
0
VERTEX
8
1
10
10.107132
20
11.871101
42
-0.010614
0
VERTEX
8
1
10
10.370773
20
12.472092
0
VERTEX
8
1
10
10.324997
20
12.683586
42
-0.033098
0
VERTEX
8
1
10
9.947815
20
12.641647
42
-0.067830
0
VERTEX
8
1
10
9.863068
20
12.652618
0
VERTEX
8
1
10
9.853317
20
12.661324
0
VERTEX
8
1
10
9.853348
20
12.673103
0
VERTEX
8
1
10
9.864456
20
12.688255
42
-0.074224
0
VERTEX
8
1
10
10.055542
20
12.806152
42
-0.029365
0
VERTEX
8
1
10
10.254715
20
12.887024
42
-0.013919
0
VERTEX
8
1
10
9.966873
20
13.419258
42
-0.058026
0
VERTEX
8
1
10
9.938538
20
13.500771
42
0.073843
0
VERTEX
8
1
10
9.868439
20
13.604393
42
-0.013292
0
VERTEX
8
1
10
9.688080
20
13.832596
0
VERTEX
8
1
10
9.671280
20
13.858025
42
0.062962
0
VERTEX
8
1
10
9.632187
20
13.955887
42
0.047462
0
VERTEX
8
1
10
9.492691
20
14.193657
0
VERTEX
8
1
10
9.485474
20
14.201279
0
VERTEX
8
1
10
9.026764
20
14.379936
0
SEQEND
0
POLYLINE
8
1
66
1
0
VERTEX
8
1
10
6.049042
20
13.520500
42
-0.105102
0
VERTEX
8
1
10
6.028595
20
13.458366
0
VERTEX
8
1
10
6.000732
20
13.402878
42
0.013497
0
VERTEX
8
1
10
5.757462
20
12.938736
42
-0.018049
0
VERTEX
8
1
10
5.789536
20
13.340248
0
VERTEX
8
1
10
5.793030
20
13.356400
0
VERTEX
8
1
10
5.799652
20
13.370461
42
-0.018916
0
VERTEX
8
1
10
5.965698
20
13.631615
0
SEQEND
0
POLYLINE
8
1
66
1
0
VERTEX
8
1
10
5.542084
20
12.326057
0
VERTEX
8
1
10
5.486450
20
11.951683
42
0.021643
0
VERTEX
8
1
10
5.423065
20
12.315926
0
VERTEX
8
1
10
5.415848
20
12.337402
42
-0.222018
0
VERTEX
8
1
10
5.415527
20
12.422134
42
-0.039124
0
VERTEX
8
1
10
5.507370
20
12.645500
0
SEQEND
0
POLYLINE
8
1
66
1
0
VERTEX
8
1
10
6.271255
20
11.076057
0
VERTEX
8
1
10
6.833710
20
10.617676
0
VERTEX
8
1
10
6.769592
20
10.547348
0
VERTEX
8
1
10
6.760254
20
10.544472
42
-0.123057
0
VERTEX
8
1
10
6.617523
20
10.573547
0
VERTEX
8
1
10
6.572388
20
10.592300
0
VERTEX
8
1
10
6.527924
20
10.612625
42
-0.152935
0
VERTEX
8
1
10
6.157410
20
10.935585
42
-0.061826
0
VERTEX
8
1
10
6.010773
20
11.230248
0
SEQEND
0
POLYLINE
8
1
66
1
0
VERTEX
8
1
10
6.590698
20
10.173279
42
0.068530
0
VERTEX
8
1
10
6.832779
20
10.031807
42
0.020254
0
VERTEX
8
1
10
7.089661
20
9.929344
0
VERTEX
8
1
10
7.098969
20
9.921242
42
-0.008517
0
VERTEX
8
1
10
7.374985
20
9.647270
42
-0.094404
0
VERTEX
8
1
10
7.280411
20
9.494705
0
VERTEX
8
1
10
7.196335
20
9.529152
42
-0.103219
0
VERTEX
8
1
10
6.526184
20
10.067291
42
-0.052749
0
VERTEX
8
1
10
6.194870
20
10.548279
0
SEQEND
0
POLYLINE
8
1
66
1
0
VERTEX
8
1
10
7.407135
20
10.186241
0
VERTEX
8
1
10
7.179764
20
10.237991
0
VERTEX
8
1
10
7.179672
20
10.242958
42
0.018826
0
VERTEX
8
1
10
7.127289
20
10.396248
0
SEQEND
0
POLYLINE
8
1
66
1
0
VERTEX
8
1
10
7.597641
20
9.833000
42
-0.066355
0
VERTEX
8
1
10
7.807144
20
9.804115
0
VERTEX
8
1
10
7.818161
20
9.796631
0
VERTEX
8
1
10
7.856049
20
9.750977
42
-0.147455
0
VERTEX
8
1
10
7.785141
20
9.659393
0
VERTEX
8
1
10
7.760895
20
9.653259
0
VERTEX
8
1
10
7.724289
20
9.659706
0
VERTEX
8
1
10
7.678436
20
9.676193
42
-0.042556
0
VERTEX
8
1
10
7.348846
20
9.866631
0
SEQEND
0
LINE
8
1
10
7.471252
20
9.428329
11
7.547058
21
9.559212
0
POLYLINE
8
1
66
1
0
VERTEX
8
1
10
8.847641
20
10.576057
42
-0.106852
0
VERTEX
8
1
10
8.986679
20
10.730537
42
-0.042343
0
VERTEX
8
1
10
9.308334
20
10.946938
0
VERTEX
8
1
10
9.350876
20
10.966660
0
VERTEX
8
1
10
9.394272
20
10.984451
42
-0.073749
0
VERTEX
8
1
10
10.027069
20
11.099365
42
-0.014165
0
VERTEX
8
1
10
9.466293
20
10.485939
0
VERTEX
8
1
10
9.429047
20
10.450562
0
VERTEX
8
1
10
9.407959
20
10.433266
42
-0.104165
0
VERTEX
8
1
10
9.298828
20
10.406090
42
-0.004170
0
VERTEX
8
1
10
8.839447
20
10.371712
42
0.266931
0
VERTEX
8
1
10
8.698837
20
10.289429
42
0.087756
0
VERTEX
8
1
10
8.625672
20
10.111145
0
SEQEND
0
POLYLINE
8
1
66
1
0
VERTEX
8
1
10
8.910141
20
10.201057
42
0.081184
0
VERTEX
8
1
10
8.823120
20
10.095871
0
VERTEX
8
1
10
8.820938
20
10.087410
0
VERTEX
8
1
10
8.820038
20
10.078712
0
VERTEX
8
1
10
8.827408
20
10.074799
42
0.081717
0
VERTEX
8
1
10
8.959381
20
10.131493
42
0.000697
0
VERTEX
8
1
10
9.142639
20
10.228851
0
SEQEND
0
POLYLINE
8
1
66
1
0
VERTEX
8
1
10
9.035141
20
9.728836
42
0.046367
0
VERTEX
8
1
10
9.322037
20
9.837708
42
0.016923
0
VERTEX
8
1
10
9.951385
20
10.159149
0
VERTEX
8
1
10
9.701889
20
10.289268
42
-0.026991
0
VERTEX
8
1
10
9.416229
20
10.039192
42
-0.032569
0
VERTEX
8
1
10
9.219009
20
9.936043
42
-0.009433
0
VERTEX
8
1
10
8.847641
20
9.763557
0
SEQEND
0
POLYLINE
8
1
66
1
0
VERTEX
8
1
10
9.979584
20
10.569115
0
VERTEX
8
1
10
10.097458
20
10.700386
42
-0.011997
0
VERTEX
8
1
10
9.993042
20
10.345085
0
VERTEX
8
1
10
9.983673
20
10.338402
0
VERTEX
8
1
10
9.972153
20
10.339546
0
VERTEX
8
1
10
9.959106
20
10.347000
42
-0.080111
0
VERTEX
8
1
10
9.877273
20
10.452026
0
SEQEND
0
POLYLINE
8
1
66
1
0
VERTEX
8
1
10
10.792084
20
12.360779
42
-0.030500
0
VERTEX
8
1
10
10.936890
20
12.156891
42
-0.277109
0
VERTEX
8
1
10
10.933441
20
12.107536
42
-0.048280
0
VERTEX
8
1
10
10.806366
20
11.858673
0
VERTEX
8
1
10
10.791946
20
11.841454
42
-0.031489
0
VERTEX
8
1
10
10.583923
20
11.653542
42
-0.001407
0
VERTEX
8
1
10
10.671677
20
12.206497
42
0.055398
0
VERTEX
8
1
10
10.662430
20
12.456879
0
SEQEND
0
POLYLINE
8
1
66
1
0
VERTEX
8
1
10
7.604584
20
14.631615
42
-0.029289
0
VERTEX
8
1
10
7.964966
20
14.658234
42
0.081276
0
VERTEX
8
1
10
8.068268
20
14.667587
42
0.023115
0
VERTEX
8
1
10
8.354370
20
14.745720
42
-0.031829
0
VERTEX
8
1
10
7.982834
20
14.831062
42
0.132601
0
VERTEX
8
1
10
7.796448
20
14.852295
0
VERTEX
8
1
10
7.674362
20
14.838959
42
0.068198
0
VERTEX
8
1
10
7.560318
20
14.775658
42
0.014332
0
VERTEX
8
1
10
7.401306
20
14.666641
0
SEQEND
0
ARC
8
1
10
10.285974
20
11.032036
40
0.195272
50
-38.907155
51
-7.480183
0
POLYLINE
8
1
66
1
0
VERTEX
8
1
10
3.805984
20
12.249664
42
0.100074
0
VERTEX
8
1
10
4.167847
20
12.183044
42
0.190316
0
VERTEX
8
1
10
4.379776
20
12.265427
0
VERTEX
8
1
10
4.389160
20
12.277550
42
-0.019268
0
VERTEX
8
1
10
4.163132
20
12.457893
0
VERTEX
8
1
10
4.255798
20
12.448784
0
VERTEX
8
1
10
4.310440
20
12.451187
42
0.185257
0
VERTEX
8
1
10
4.627945
20
12.634163
42
0.054901
0
VERTEX
8
1
10
4.722641
20
12.768181
0
SEQEND
0
POLYLINE
8
1
66
1
0
VERTEX
8
1
10
3.222641
20
10.583000
42
0.231293
0
VERTEX
8
1
10
4.511841
20
10.682205
0
VERTEX
8
1
10
4.524323
20
10.690819
0
VERTEX
8
1
10
4.523514
20
10.693306
42
-0.073863
0
VERTEX
8
1
10
4.160126
20
10.707672
42
-0.196959
0
VERTEX
8
1
10
4.101898
20
10.739586
42
-0.303168
0
VERTEX
8
1
10
4.108170
20
10.764557
0
VERTEX
8
1
10
4.157043
20
10.775566
42
0.193550
0
VERTEX
8
1
10
4.657761
20
11.073273
42
0.076051
0
VERTEX
8
1
10
4.750427
20
11.249664
0
SEQEND
0
POLYLINE
8
1
66
1
0
VERTEX
8
1
10
2.861542
20
10.962631
0
VERTEX
8
1
10
2.904251
20
10.935806
42
0.133525
0
VERTEX
8
1
10
3.381165
20
10.788361
42
0.053723
0
VERTEX
8
1
10
3.542084
20
10.805229
42
-0.371290
0
VERTEX
8
1
10
3.472015
20
10.853012
0
VERTEX
8
1
10
3.444870
20
10.944107
42
0.252126
0
VERTEX
8
1
10
3.854828
20
10.981049
0
VERTEX
8
1
10
3.881912
20
10.998779
0
VERTEX
8
1
10
3.907837
20
11.018181
0
SEQEND
0
POLYLINE
8
1
66
1
0
VERTEX
8
1
10
3.083755
20
9.610771
42
0.090030
0
VERTEX
8
1
10
3.311020
20
9.572418
42
0.064203
0
VERTEX
8
1
10
3.750381
20
9.610802
42
-0.085076
0
VERTEX
8
1
10
3.579361
20
9.759804
0
VERTEX
8
1
10
3.568314
20
9.777847
0
VERTEX
8
1
10
3.558884
20
9.796783
0
VERTEX
8
1
10
3.590317
20
9.797462
0
VERTEX
8
1
10
3.676956
20
9.783646
0
VERTEX
8
1
10
3.764313
20
9.777245
42
0.099797
0
VERTEX
8
1
10
4.411377
20
9.905190
42
0.058641
0
VERTEX
8
1
10
4.888245
20
10.156952
42
-0.066731
0
VERTEX
8
1
10
4.628677
20
10.159668
42
-0.183391
0
VERTEX
8
1
10
4.550537
20
10.198509
42
-0.291666
0
VERTEX
8
1
10
4.545181
20
10.245514
0
VERTEX
8
1
10
4.656448
20
10.279877
42
0.260474
0
VERTEX
8
1
10
5.046722
20
10.740410
0
SEQEND
0
POLYLINE
8
1
66
1
0
VERTEX
8
1
10
3.157837
20
10.138550
42
0.142230
0
VERTEX
8
1
10
3.461792
20
10.078560
42
0.028609
0
VERTEX
8
1
10
3.574356
20
10.101662
42
-0.058653
0
VERTEX
8
1
10
3.446869
20
10.245819
0
VERTEX
8
1
10
3.536835
20
10.208168
42
0.246216
0
VERTEX
8
1
10
3.935623
20
10.268181
0
SEQEND
0
POLYLINE
8
1
66
1
0
VERTEX
8
1
10
7.069870
20
12.763557
0
VERTEX
8
1
10
7.058105
20
12.765602
0
VERTEX
8
1
10
6.784378
20
12.790077
42
-0.056920
0
VERTEX
8
1
10
6.486679
20
12.846230
42
-0.189760
0
VERTEX
8
1
10
6.419098
20
12.894493
0
VERTEX
8
1
10
6.464508
20
12.893631
0
VERTEX
8
1
10
6.557159
20
12.883690
42
0.157279
0
VERTEX
8
1
10
7.157593
20
13.053688
42
0.084565
0
VERTEX
8
1
10
7.528198
20
13.388557
42
-0.074973
0
VERTEX
8
1
10
7.234787
20
13.413391
0
VERTEX
8
1
10
7.244949
20
13.415131
42
0.168430
0
VERTEX
8
1
10
7.534607
20
13.530571
42
0.077947
0
VERTEX
8
1
10
7.805985
20
13.833000
0
SEQEND
0
POLYLINE
8
1
66
1
0
VERTEX
8
1
10
6.250427
20
12.041336
42
0.128412
0
VERTEX
8
1
10
6.487213
20
12.003403
42
0.073147
0
VERTEX
8
1
10
6.830215
20
12.067802
0
VERTEX
8
1
10
6.821182
20
12.073013
42
-0.138567
0
VERTEX
8
1
10
6.549316
20
12.266823
42
-0.054595
0
VERTEX
8
1
10
6.517105
20
12.325218
0
VERTEX
8
1
10
6.566315
20
12.318581
42
0.135199
0
VERTEX
8
1
10
7.323959
20
12.341522
42
0.077518
0
VERTEX
8
1
10
7.847321
20
12.582947
42
-0.116176
0
VERTEX
8
1
10
7.602280
20
12.600288
42
-0.111614
0
VERTEX
8
1
10
7.525558
20
12.651566
0
VERTEX
8
1
10
7.524673
20
12.666870
42
0.198149
0
VERTEX
8
1
10
7.893524
20
12.850105
42
0.067317
0
VERTEX
8
1
10
8.000427
20
12.999672
0
SEQEND
0
POLYLINE
8
1
66
1
0
VERTEX
8
1
10
6.847641
20
11.346893
42
0.102591
0
VERTEX
8
1
10
7.281296
20
11.336006
42
0.064127
0
VERTEX
8
1
10
7.389313
20
11.374672
42
-0.182648
0
VERTEX
8
1
10
7.072525
20
11.611732
42
-0.094830
0
VERTEX
8
1
10
7.055984
20
11.666336
0
VERTEX
8
1
10
7.130112
20
11.641251
0
VERTEX
8
1
10
7.205017
20
11.624260
42
0.121758
0
VERTEX
8
1
10
7.760239
20
11.681091
42
0.036693
0
VERTEX
8
1
10
7.958755
20
11.763557
42
-0.109289
0
VERTEX
8
1
10
7.750473
20
11.842384
42
-0.078204
0
VERTEX
8
1
10
7.708755
20
11.888557
0
VERTEX
8
1
10
7.757813
20
11.892944
0
VERTEX
8
1
10
7.802185
20
11.900879
42
0.246229
0
VERTEX
8
1
10
8.049789
20
12.093536
0
VERTEX
8
1
10
8.055984
20
12.110779
0
SEQEND
0
POLYLINE
8
1
66
1
0
VERTEX
8
1
10
9.458755
20
12.569115
42
0.102642
0
VERTEX
8
1
10
9.691254
20
12.714485
0
VERTEX
8
1
10
9.705673
20
12.731560
0
VERTEX
8
1
10
9.655441
20
12.754646
42
-0.110890
0
VERTEX
8
1
10
9.089371
20
13.123268
0
VERTEX
8
1
10
9.072449
20
13.143448
0
VERTEX
8
1
10
9.056580
20
13.164467
42
0.310339
0
VERTEX
8
1
10
9.298431
20
13.226891
0
VERTEX
8
1
10
9.281601
20
13.238953
42
-0.104068
0
VERTEX
8
1
10
8.934402
20
13.352608
0
VERTEX
8
1
10
8.892502
20
13.382645
42
-0.232179
0
VERTEX
8
1
10
8.764313
20
13.624672
0
SEQEND
0
POLYLINE
8
1
66
1
0
VERTEX
8
1
10
9.958755
20
11.971893
42
-0.180128
0
VERTEX
8
1
10
9.584366
20
12.152725
42
0.162625
0
VERTEX
8
1
10
9.744904
20
12.305786
0
VERTEX
8
1
10
9.725067
20
12.311226
42
-0.228270
0
VERTEX
8
1
10
9.191391
20
12.409027
42
-0.063414
0
VERTEX
8
1
10
9.042084
20
12.541336
0
SEQEND
0
POLYLINE
8
1
66
1
0
VERTEX
8
1
10
9.514313
20
11.499672
42
-0.241216
0
VERTEX
8
1
10
9.359344
20
11.603378
0
VERTEX
8
1
10
9.352463
20
11.620506
0
VERTEX
8
1
10
9.347656
20
11.638329
42
0.083069
0
VERTEX
8
1
10
9.489075
20
11.750404
0
VERTEX
8
1
10
9.483658
20
11.760536
42
-0.197743
0
VERTEX
8
1
10
9.139313
20
11.846893
0
SEQEND
0
POLYLINE
8
1
66
1
0
VERTEX
8
1
10
9.764313
20
13.416336
42
-0.122644
0
VERTEX
8
1
10
9.339600
20
13.519363
42
-0.099967
0
VERTEX
8
1
10
9.180984
20
13.666336
42
0.093733
0
VERTEX
8
1
10
9.295700
20
13.768425
0
VERTEX
8
1
10
9.301483
20
13.779594
0
VERTEX
8
1
10
9.305984
20
13.791336
42
-0.198626
0
VERTEX
8
1
10
8.873581
20
13.913322
42
-0.071080
0
VERTEX
8
1
10
8.805985
20
13.985779
0
SEQEND
0
POLYLINE
8
1
66
1
0
VERTEX
8
1
10
10.208755
20
7.360779
42
0.181589
0
VERTEX
8
1
10
10.378494
20
7.264656
42
0.113211
0
VERTEX
8
1
10
10.411362
20
7.272758
0
VERTEX
8
1
10
10.409622
20
7.289322
0
VERTEX
8
1
10
10.383163
20
7.339409
0
VERTEX
8
1
10
10.361832
20
7.393051
0
VERTEX
8
1
10
10.350372
20
7.431313
42
-0.147505
0
VERTEX
8
1
10
10.385483
20
8.054573
42
-0.071996
0
VERTEX
8
1
10
10.423874
20
8.118896
0
VERTEX
8
1
10
10.435806
20
8.114403
42
0.466443
0
VERTEX
8
1
10
10.664139
20
8.039604
42
-0.185383
0
VERTEX
8
1
10
10.550766
20
8.303429
0
VERTEX
8
1
10
10.548767
20
8.340027
42
-0.098347
0
VERTEX
8
1
10
10.639313
20
8.777451
0
SEQEND
0
POLYLINE
8
1
66
1
0
VERTEX
8
1
10
9.417084
20
4.624672
42
-0.168502
0
VERTEX
8
1
10
9.375046
20
4.884201
0
VERTEX
8
1
10
9.380600
20
4.925323
42
-0.081151
0
VERTEX
8
1
10
9.583755
20
5.444115
42
0.294904
0
VERTEX
8
1
10
9.784119
20
5.461357
0
VERTEX
8
1
10
9.795715
20
5.472969
0
VERTEX
8
1
10
9.805984
20
5.485779
42
-0.128367
0
VERTEX
8
1
10
9.588455
20
6.032196
42
-0.090873
0
VERTEX
8
1
10
9.614532
20
6.707214
0
VERTEX
8
1
10
9.620682
20
6.726913
0
VERTEX
8
1
10
9.625427
20
6.735779
42
0.268513
0
VERTEX
8
1
10
9.645187
20
6.708565
0
VERTEX
8
1
10
9.668411
20
6.697517
42
0.092128
0
VERTEX
8
1
10
9.889313
20
6.666336
42
-0.119326
0
VERTEX
8
1
10
9.784058
20
6.930740
42
-0.080654
0
VERTEX
8
1
10
9.794617
20
7.397491
42
-0.047506
0
VERTEX
8
1
10
9.930985
20
7.916336
0
SEQEND
0
POLYLINE
8
1
66
1
0
VERTEX
8
1
10
8.500427
20
2.513557
42
-0.099073
0
VERTEX
8
1
10
8.453247
20
2.780556
42
-0.087919
0
VERTEX
8
1
10
8.509537
20
3.198776
42
-0.116392
0
VERTEX
8
1
10
8.539917
20
3.248230
42
0.302909
0
VERTEX
8
1
10
8.669769
20
3.128487
42
0.115036
0
VERTEX
8
1
10
8.704376
20
3.136131
0
VERTEX
8
1
10
8.696777
20
3.164368
0
VERTEX
8
1
10
8.681274
20
3.211815
0
VERTEX
8
1
10
8.670959
20
3.264114
42
-0.088130
0
VERTEX
8
1
10
8.706085
20
3.689445
42
-0.062281
0
VERTEX
8
1
10
8.853256
20
4.104904
0
VERTEX
8
1
10
8.867218
20
4.127892
0
VERTEX
8
1
10
8.880585
20
4.133331
0
VERTEX
8
1
10
8.958786
20
4.047150
42
0.264679
0
VERTEX
8
1
10
9.046921
20
4.011742
42
0.095051
0
VERTEX
8
1
10
9.085785
20
4.031845
0
VERTEX
8
1
10
9.090439
20
4.053978
0
VERTEX
8
1
10
9.059509
20
4.118790
0
VERTEX
8
1
10
9.036545
20
4.185753
0
VERTEX
8
1
10
9.020813
20
4.254234
42
-0.114890
0
VERTEX
8
1
10
9.064529
20
4.762680
42
-0.043404
0
VERTEX
8
1
10
9.167084
20
5.027451
0
SEQEND
0
POLYLINE
8
1
66
1
0
VERTEX
8
1
10
8.014313
20
4.624672
42
-0.094801
0
VERTEX
8
1
10
8.024536
20
4.750397
42
-0.064673
0
VERTEX
8
1
10
8.169647
20
5.164597
42
-0.134180
0
VERTEX
8
1
10
8.198898
20
5.197807
0
VERTEX
8
1
10
8.206284
20
5.196625
42
0.126570
0
VERTEX
8
1
10
8.345154
20
4.972755
42
0.119453
0
VERTEX
8
1
10
8.407730
20
4.944633
0
VERTEX
8
1
10
8.413681
20
4.953201
0
VERTEX
8
1
10
8.399521
20
5.002380
42
-0.085573
0
VERTEX
8
1
10
8.401337
20
5.395607
42
-0.072484
0
VERTEX
8
1
10
8.649612
20
6.209511
42
-0.027711
0
VERTEX
8
1
10
8.717545
20
6.325844
0
VERTEX
8
1
10
8.726974
20
6.318985
42
-0.027053
0
VERTEX
8
1
10
8.752777
20
6.181839
0
VERTEX
8
1
10
8.758789
20
6.161880
42
0.326997
0
VERTEX
8
1
10
8.855301
20
6.085037
0
VERTEX
8
1
10
8.875778
20
6.083290
0
VERTEX
8
1
10
8.885986
20
6.121117
42
-0.108659
0
VERTEX
8
1
10
9.008743
20
6.860596
42
-0.062167
0
VERTEX
8
1
10
9.292084
20
7.402451
0
SEQEND
0
POLYLINE
8
1
66
1
0
VERTEX
8
1
10
8.347641
20
3.666336
42
-0.082608
0
VERTEX
8
1
10
8.354492
20
4.049149
42
-0.061198
0
VERTEX
8
1
10
8.509262
20
4.610573
42
-0.077064
0
VERTEX
8
1
10
8.537735
20
4.654106
0
VERTEX
8
1
10
8.542114
20
4.651146
42
0.171588
0
VERTEX
8
1
10
8.651443
20
4.498489
42
0.478953
0
VERTEX
8
1
10
8.704758
20
4.518173
0
VERTEX
8
1
10
8.704132
20
4.556229
42
-0.084935
0
VERTEX
8
1
10
8.725403
20
5.045380
42
-0.066008
0
VERTEX
8
1
10
8.896210
20
5.574867
42
-0.145470
0
VERTEX
8
1
10
8.931213
20
5.624222
42
0.174418
0
VERTEX
8
1
10
9.066986
20
5.490501
42
0.120115
0
VERTEX
8
1
10
9.135529
20
5.485001
42
-0.095626
0
VERTEX
8
1
10
9.143677
20
5.927933
42
-0.043924
0
VERTEX
8
1
10
9.250427
20
6.319115
0
SEQEND
0
POLYLINE
8
1
66
1
0
VERTEX
8
1
10
7.222641
20
3.708000
42
0.115000
0
VERTEX
8
1
10
7.360123
20
3.587257
42
0.117137
0
VERTEX
8
1
10
7.408524
20
3.580780
0
VERTEX
8
1
10
7.408905
20
3.600159
42
-0.113344
0
VERTEX
8
1
10
7.348129
20
4.016960
42
-0.057437
0
VERTEX
8
1
10
7.431274
20
4.499115
42
0.142119
0
VERTEX
8
1
10
7.543701
20
4.378090
42
0.189690
0
VERTEX
8
1
10
7.625427
20
4.374672
42
-0.072596
0
VERTEX
8
1
10
7.629929
20
4.868477
42
-0.050493
0
VERTEX
8
1
10
7.821915
20
5.685242
0
VERTEX
8
1
10
7.831833
20
5.707848
0
VERTEX
8
1
10
7.842667
20
5.730042
0
VERTEX
8
1
10
7.847672
20
5.732834
42
0.191824
0
VERTEX
8
1
10
7.924347
20
5.553902
42
0.256474
0
VERTEX
8
1
10
8.034409
20
5.538719
0
VERTEX
8
1
10
8.037842
20
5.589478
42
-0.109011
0
VERTEX
8
1
10
8.136520
20
6.113861
42
-0.074986
0
VERTEX
8
1
10
8.367081
20
6.521217
0
VERTEX
8
1
10
8.380554
20
6.535416
0
VERTEX
8
1
10
8.389313
20
6.541336
0
SEQEND
0
POLYLINE
8
1
66
1
0
VERTEX
8
1
10
7.097641
20
4.444115
42
-0.087835
0
VERTEX
8
1
10
7.150314
20
4.873680
42
-0.039612
0
VERTEX
8
1
10
7.264496
20
5.193459
42
0.139742
0
VERTEX
8
1
10
7.330780
20
5.075142
42
0.174386
0
VERTEX
8
1
10
7.367538
20
5.066689
0
VERTEX
8
1
10
7.373245
20
5.086075
42
-0.085828
0
VERTEX
8
1
10
7.409775
20
5.480057
42
-0.034733
0
VERTEX
8
1
10
7.500427
20
5.777451
0
SEQEND
0
POLYLINE
8
1
66
1
0
VERTEX
8
1
10
4.250427
20
8.610779
42
-0.129900
0
VERTEX
8
1
10
4.117996
20
8.596100
42
-0.314957
0
VERTEX
8
1
10
4.083755
20
8.629295
0
VERTEX
8
1
10
4.100159
20
8.639656
42
0.056496
0
VERTEX
8
1
10
4.250427
20
8.805229
0
SEQEND
0
POLYLINE
8
1
66
1
0
VERTEX
8
1
10
4.111542
20
8.147820
42
-0.145370
0
VERTEX
8
1
10
3.954132
20
8.175598
0
VERTEX
8
1
10
3.981293
20
8.179230
42
0.176884
0
VERTEX
8
1
10
4.120804
20
8.305229
0
SEQEND
0
POLYLINE
8
1
66
1
0
VERTEX
8
1
10
4.389313
20
7.805229
42
-0.203147
0
VERTEX
8
1
10
4.211639
20
7.853790
0
VERTEX
8
1
10
4.221619
20
7.860435
42
0.320699
0
VERTEX
8
1
10
4.365173
20
7.978500
0
VERTEX
8
1
10
4.370117
20
7.996513
0
VERTEX
8
1
10
4.370804
20
7.999672
0
SEQEND
0
POLYLINE
8
1
66
1
0
VERTEX
8
1
10
4.278198
20
7.370041
42
-0.301068
0
VERTEX
8
1
10
4.143951
20
7.414543
0
VERTEX
8
1
10
4.139313
20
7.425598
42
0.279242
0
VERTEX
8
1
10
4.287460
20
7.536705
0
SEQEND
0
POLYLINE
8
1
66
1
0
VERTEX
8
1
10
4.648575
20
7.286705
42
-0.203245
0
VERTEX
8
1
10
4.470901
20
7.335281
0
VERTEX
8
1
10
4.480881
20
7.341919
42
0.320605
0
VERTEX
8
1
10
4.624420
20
7.459984
0
VERTEX
8
1
10
4.629379
20
7.477989
0
VERTEX
8
1
10
4.630066
20
7.481155
0
SEQEND
0
POLYLINE
8
1
66
1
0
VERTEX
8
1
10
4.417084
20
6.944115
42
-0.203299
0
VERTEX
8
1
10
4.239395
20
6.992691
0
VERTEX
8
1
10
4.249390
20
6.999329
42
0.320751
0
VERTEX
8
1
10
4.392929
20
7.117386
0
VERTEX
8
1
10
4.397888
20
7.135391
0
VERTEX
8
1
10
4.398575
20
7.138557
0
SEQEND
0
POLYLINE
8
1
66
1
0
VERTEX
8
1
10
4.731903
20
6.638557
42
-0.203237
0
VERTEX
8
1
10
4.554199
20
6.687126
0
VERTEX
8
1
10
4.564224
20
6.693771
42
0.320657
0
VERTEX
8
1
10
4.707748
20
6.811829
0
VERTEX
8
1
10
4.712708
20
6.829834
0
VERTEX
8
1
10
4.713394
20
6.833000
0
SEQEND
0
POLYLINE
8
1
66
1
0
VERTEX
8
1
10
4.407837
20
6.499672
42
-0.203269
0
VERTEX
8
1
10
4.230133
20
6.548248
0
VERTEX
8
1
10
4.240143
20
6.554886
42
0.320667
0
VERTEX
8
1
10
4.383682
20
6.672951
0
VERTEX
8
1
10
4.388641
20
6.690956
0
VERTEX
8
1
10
4.389313
20
6.694115
0
SEQEND
0
POLYLINE
8
1
66
1
0
VERTEX
8
1
10
4.528198
20
6.036705
42
-0.203182
0
VERTEX
8
1
10
4.350510
20
6.085281
0
VERTEX
8
1
10
4.360504
20
6.091919
42
0.320738
0
VERTEX
8
1
10
4.504044
20
6.209991
0
VERTEX
8
1
10
4.509003
20
6.227997
0
VERTEX
8
1
10
4.509689
20
6.231155
0
SEQEND
0
POLYLINE
8
1
66
1
0
VERTEX
8
1
10
4.898575
20
6.110779
42
-0.203299
0
VERTEX
8
1
10
4.720886
20
6.159363
0
VERTEX
8
1
10
4.730881
20
6.165993
42
0.320690
0
VERTEX
8
1
10
4.874420
20
6.284065
0
VERTEX
8
1
10
4.879379
20
6.302071
0
VERTEX
8
1
10
4.880066
20
6.305229
0
SEQEND
0
POLYLINE
8
1
66
1
0
VERTEX
8
1
10
4.787460
20
5.647820
42
-0.203182
0
VERTEX
8
1
10
4.609772
20
5.696396
0
VERTEX
8
1
10
4.619766
20
5.703033
42
0.320776
0
VERTEX
8
1
10
4.763306
20
5.821098
0
VERTEX
8
1
10
4.768265
20
5.839104
0
VERTEX
8
1
10
4.768951
20
5.842262
0
SEQEND
0
POLYLINE
8
1
66
1
0
VERTEX
8
1
10
5.111542
20
5.499672
42
-0.203299
0
VERTEX
8
1
10
4.933853
20
5.548248
0
VERTEX
8
1
10
4.943848
20
5.554886
42
0.320744
0
VERTEX
8
1
10
5.087372
20
5.672951
0
VERTEX
8
1
10
5.092331
20
5.690956
0
VERTEX
8
1
10
5.093018
20
5.694115
0
SEQEND
0
POLYLINE
8
1
66
1
0
VERTEX
8
1
10
5.176361
20
5.129295
42
-0.203267
0
VERTEX
8
1
10
4.998672
20
5.177864
0
VERTEX
8
1
10
5.008667
20
5.184509
42
0.320768
0
VERTEX
8
1
10
5.152191
20
5.302582
0
VERTEX
8
1
10
5.157150
20
5.320587
0
VERTEX
8
1
10
5.157837
20
5.323746
0
SEQEND
0
POLYLINE
8
1
66
1
0
VERTEX
8
1
10
5.574509
20
4.907074
42
-0.203185
0
VERTEX
8
1
10
5.396805
20
4.955650
0
VERTEX
8
1
10
5.406799
20
4.962288
42
0.320674
0
VERTEX
8
1
10
5.550354
20
5.080345
0
VERTEX
8
1
10
5.555298
20
5.098351
0
VERTEX
8
1
10
5.555984
20
5.101517
0
SEQEND
0
POLYLINE
8
1
66
1
0
VERTEX
8
1
10
5.889313
20
4.851517
42
0.203152
0
VERTEX
8
1
10
6.067017
20
4.900085
0
VERTEX
8
1
10
6.057022
20
4.906731
42
-0.320667
0
VERTEX
8
1
10
5.913483
20
5.024796
0
VERTEX
8
1
10
5.908524
20
5.042801
0
VERTEX
8
1
10
5.907837
20
5.045967
0
SEQEND
0
POLYLINE
8
1
66
1
0
VERTEX
8
1
10
5.113861
20
6.499672
42
-0.203329
0
VERTEX
8
1
10
4.936188
20
6.548248
0
VERTEX
8
1
10
4.946167
20
6.554886
42
0.320744
0
VERTEX
8
1
10
5.089691
20
6.672951
0
VERTEX
8
1
10
5.094650
20
6.690956
0
VERTEX
8
1
10
5.095337
20
6.694115
0
SEQEND
0
POLYLINE
8
1
66
1
0
VERTEX
8
1
10
5.627747
20
6.541336
42
-0.203233
0
VERTEX
8
1
10
5.450058
20
6.589905
0
VERTEX
8
1
10
5.460052
20
6.596550
42
0.320852
0
VERTEX
8
1
10
5.603577
20
6.714615
0
VERTEX
8
1
10
5.608536
20
6.732620
0
VERTEX
8
1
10
5.609222
20
6.735779
0
SEQEND
0
POLYLINE
8
1
66
1
0
VERTEX
8
1
10
6.002747
20
6.458000
42
-0.203182
0
VERTEX
8
1
10
5.825058
20
6.506577
0
VERTEX
8
1
10
5.835052
20
6.513214
42
0.320877
0
VERTEX
8
1
10
5.978577
20
6.631287
0
VERTEX
8
1
10
5.983536
20
6.649292
0
VERTEX
8
1
10
5.984222
20
6.652451
0
SEQEND
0
POLYLINE
8
1
66
1
0
VERTEX
8
1
10
6.312927
20
6.316795
42
0.203182
0
VERTEX
8
1
10
6.490616
20
6.365364
0
VERTEX
8
1
10
6.480621
20
6.372009
42
-0.320744
0
VERTEX
8
1
10
6.337097
20
6.490074
0
VERTEX
8
1
10
6.332138
20
6.508087
0
VERTEX
8
1
10
6.331451
20
6.511246
0
SEQEND
0
POLYLINE
8
1
66
1
0
VERTEX
8
1
10
6.639313
20
6.136246
42
0.203182
0
VERTEX
8
1
10
6.817001
20
6.184814
0
VERTEX
8
1
10
6.807022
20
6.191452
42
-0.320689
0
VERTEX
8
1
10
6.663483
20
6.309509
0
VERTEX
8
1
10
6.658539
20
6.327522
0
VERTEX
8
1
10
6.657837
20
6.330688
0
SEQEND
0
POLYLINE
8
1
66
1
0
VERTEX
8
1
10
3.145111
20
9.126900
42
0.044170
0
VERTEX
8
1
10
3.561508
20
9.127228
42
-0.329427
0
VERTEX
8
1
10
3.553375
20
9.230125
0
VERTEX
8
1
10
3.561676
20
9.238663
0
VERTEX
8
1
10
3.571411
20
9.245514
0
VERTEX
8
1
10
3.612762
20
9.246712
42
0.047210
0
VERTEX
8
1
10
4.145447
20
9.200729
42
0.094934
0
VERTEX
8
1
10
4.441620
20
9.255455
42
0.147465
0
VERTEX
8
1
10
4.519989
20
9.314293
42
-0.248773
0
VERTEX
8
1
10
4.337555
20
9.446899
0
VERTEX
8
1
10
4.359390
20
9.462173
0
VERTEX
8
1
10
4.421478
20
9.470688
0
VERTEX
8
1
10
4.476685
20
9.483788
0
VERTEX
8
1
10
4.525391
20
9.500763
42
0.251619
0
VERTEX
8
1
10
4.749191
20
9.751862
0
SEQEND
0
POLYLINE
8
1
66
1
0
VERTEX
8
1
10
4.009689
20
11.805229
42
-0.085265
0
VERTEX
8
1
10
3.927658
20
11.891159
42
-0.464785
0
VERTEX
8
1
10
3.935623
20
11.916336
42
0.176573
0
VERTEX
8
1
10
4.176727
20
11.890465
42
0.093040
0
VERTEX
8
1
10
4.231903
20
11.916336
0
SEQEND
0
POLYLINE
8
1
66
1
0
VERTEX
8
1
10
3.407837
20
12.249672
42
-0.047697
0
VERTEX
8
1
10
3.128433
20
12.222794
42
-0.087123
0
VERTEX
8
1
10
3.070435
20
12.235672
0
VERTEX
8
1
10
3.086212
20
12.243027
42
0.297962
0
VERTEX
8
1
10
3.296723
20
12.416336
0
SEQEND
0
POLYLINE
8
1
66
1
0
VERTEX
8
1
10
4.853363
20
13.480850
42
0.176322
0
VERTEX
8
1
10
5.279724
20
13.650276
42
-0.051842
0
VERTEX
8
1
10
5.311661
20
13.668335
42
-0.087309
0
VERTEX
8
1
10
5.146210
20
13.753639
42
-0.151400
0
VERTEX
8
1
10
5.124176
20
13.793327
42
0.083900
0
VERTEX
8
1
10
5.363815
20
13.800362
42
0.222094
0
VERTEX
8
1
10
5.490128
20
13.885468
42
0.083659
0
VERTEX
8
1
10
5.499146
20
13.918320
0
SEQEND
0
LINE
8
1
10
1.375153
20
16.116768
11
8.202896
21
16.222511
0
POLYLINE
8
1
66
1
0
VERTEX
8
1
10
1.415009
20
16.457603
0
VERTEX
8
1
10
1.195404
20
16.064232
0
VERTEX
8
1
10
1.442184
20
15.582497
0
SEQEND
0
CIRCLE
8
1
10
19.146744
20
10.781708
40
0.003135
0
POLYLINE
8
1
66
1
70
1
0
VERTEX
8
1
10
24.440872
20
12.470848
42
-0.249605
0
VERTEX
8
1
10
24.422607
20
12.456825
42
0.001627
0
VERTEX
8
1
10
23.200867
20
12.346260
42
0.014490
0
VERTEX
8
1
10
23.142700
20
12.345688
42
-0.012256
0
VERTEX
8
1
10
22.994934
20
12.059143
0
VERTEX
8
1
10
22.994400
20
12.046120
42
-0.026376
0
VERTEX
8
1
10
23.192276
20
11.978722
42
-0.247406
0
VERTEX
8
1
10
23.234848
20
11.936279
0
VERTEX
8
1
10
23.233414
20
11.924492
42
-0.145582
0
VERTEX
8
1
10
23.150558
20
11.853767
42
0.062571
0
VERTEX
8
1
10
23.021317
20
11.768219
42
0.132007
0
VERTEX
8
1
10
23.004440
20
11.733253
42
-0.016547
0
VERTEX
8
1
10
23.252945
20
11.815735
42
-0.655014
0
VERTEX
8
1
10
23.266449
20
11.794754
42
-0.306431
0
VERTEX
8
1
10
23.227982
20
11.742836
0
VERTEX
8
1
10
23.208542
20
11.731384
42
0.069492
0
VERTEX
8
1
10
23.123062
20
11.675461
0
VERTEX
8
1
10
23.107880
20
11.666405
0
VERTEX
8
1
10
23.082809
20
11.649750
0
VERTEX
8
1
10
23.136658
20
11.621063
42
-0.382781
0
VERTEX
8
1
10
23.166885
20
11.529549
0
VERTEX
8
1
10
23.161972
20
11.513069
42
-0.091826
0
VERTEX
8
1
10
23.017624
20
11.317291
0
VERTEX
8
1
10
23.021515
20
11.285042
0
VERTEX
8
1
10
23.591324
20
10.662140
42
-0.216271
0
VERTEX
8
1
10
23.624863
20
10.617477
42
-0.300232
0
VERTEX
8
1
10
23.616074
20
10.606010
42
-0.040062
0
VERTEX
8
1
10
23.379410
20
10.790359
0
VERTEX
8
1
10
23.324905
20
10.837563
42
0.010612
0
VERTEX
8
1
10
22.892960
20
11.156578
0
VERTEX
8
1
10
22.900391
20
11.139175
42
0.108977
0
VERTEX
8
1
10
23.046265
20
11.022087
42
-0.033210
0
VERTEX
8
1
10
23.210693
20
10.906868
42
-0.139106
0
VERTEX
8
1
10
23.267029
20
10.825768
42
-0.332439
0
VERTEX
8
1
10
23.228683
20
10.746788
42
-0.085263
0
VERTEX
8
1
10
23.063660
20
10.682632
42
0.031496
0
VERTEX
8
1
10
22.877045
20
10.622383
42
0.331109
0
VERTEX
8
1
10
22.850143
20
10.566833
0
VERTEX
8
1
10
22.855835
20
10.541283
42
0.051770
0
VERTEX
8
1
10
22.972107
20
10.340752
42
-0.056070
0
VERTEX
8
1
10
23.057587
20
10.172043
42
-0.119800
0
VERTEX
8
1
10
23.068039
20
10.010864
42
-0.198489
0
VERTEX
8
1
10
23.035706
20
9.988747
42
0.389293
0
VERTEX
8
1
10
22.982620
20
9.826820
0
VERTEX
8
1
10
22.992340
20
9.795921
42
-0.008841
0
VERTEX
8
1
10
23.106812
20
9.525581
42
-0.089593
0
VERTEX
8
1
10
23.131927
20
9.358620
0
VERTEX
8
1
10
23.127960
20
9.353867
0
VERTEX
8
1
10
23.121658
20
9.357452
0
VERTEX
8
1
10
23.110016
20
9.372864
42
0.084991
0
VERTEX
8
1
10
23.028183
20
9.470062
42
0.317012
0
VERTEX
8
1
10
22.971909
20
9.469551
42
0.266930
0
VERTEX
8
1
10
22.925034
20
9.345589
0
VERTEX
8
1
10
22.932739
20
9.303894
42
0.058980
0
VERTEX
8
1
10
23.045837
20
9.063377
42
-0.043327
0
VERTEX
8
1
10
23.172241
20
8.803551
42
-0.161738
0
VERTEX
8
1
10
23.176132
20
8.564812
42
-0.063674
0
VERTEX
8
1
10
23.052979
20
8.265030
42
0.004320
0
VERTEX
8
1
10
22.887329
20
7.941811
42
0.057032
0
VERTEX
8
1
10
22.826935
20
7.753075
42
0.152458
0
VERTEX
8
1
10
22.855438
20
7.573906
42
-0.113688
0
VERTEX
8
1
10
22.884476
20
7.366028
42
-0.116113
0
VERTEX
8
1
10
22.724670
20
6.766724
0
VERTEX
8
1
10
22.701126
20
6.728477
42
0.096009
0
VERTEX
8
1
10
22.523895
20
6.361572
42
-0.031871
0
VERTEX
8
1
10
22.417999
20
6.046417
42
-0.190907
0
VERTEX
8
1
10
22.318253
20
5.937065
0
VERTEX
8
1
10
22.293259
20
5.935974
0
VERTEX
8
1
10
22.280273
20
5.954659
0
VERTEX
8
1
10
22.277954
20
5.990669
0
VERTEX
8
1
10
22.284973
20
6.041550
42
-0.039700
0
VERTEX
8
1
10
22.458237
20
6.545441
42
0.005481
0
VERTEX
8
1
10
22.618469
20
6.943413
0
VERTEX
8
1
10
22.619186
20
6.956764
0
VERTEX
8
1
10
22.613663
20
6.960297
0
VERTEX
8
1
10
22.602463
20
6.955223
0
VERTEX
8
1
10
22.578827
20
6.935860
0
VERTEX
8
1
10
22.555847
20
6.915710
42
-0.043135
0
VERTEX
8
1
10
22.312485
20
6.704735
42
-0.055549
0
VERTEX
8
1
10
22.228592
20
6.664230
0
VERTEX
8
1
10
22.203308
20
6.661232
0
VERTEX
8
1
10
22.191452
20
6.670021
0
VERTEX
8
1
10
22.191437
20
6.689308
0
VERTEX
8
1
10
22.201706
20
6.717766
42
-0.030422
0
VERTEX
8
1
10
22.389038
20
7.005997
42
0.028408
0
VERTEX
8
1
10
22.520615
20
7.220451
42
0.097795
0
VERTEX
8
1
10
22.552383
20
7.325104
0
VERTEX
8
1
10
22.549622
20
7.336998
0
VERTEX
8
1
10
22.541565
20
7.337387
0
VERTEX
8
1
10
22.528732
20
7.327538
42
0.041954
0
VERTEX
8
1
10
22.392365
20
7.141479
42
-0.023594
0
VERTEX
8
1
10
22.181946
20
6.860443
0
VERTEX
8
1
10
22.155472
20
6.814117
42
0.081023
0
VERTEX
8
1
10
22.098572
20
6.544991
42
0.034168
0
VERTEX
8
1
10
22.092377
20
6.142494
42
-0.005048
0
VERTEX
8
1
10
22.118973
20
5.424294
42
-0.025534
0
VERTEX
8
1
10
22.133224
20
4.752380
0
VERTEX
8
1
10
22.129272
20
4.703339
0
VERTEX
8
1
10
22.123993
20
4.654427
42
-0.152231
0
VERTEX
8
1
10
22.009354
20
4.403496
0
VERTEX
8
1
10
21.982071
20
4.370506
42
-0.032846
0
VERTEX
8
1
10
21.667938
20
4.079895
0
VERTEX
8
1
10
21.643723
20
4.056816
0
VERTEX
8
1
10
21.620712
20
4.032524
42
-0.068116
0
VERTEX
8
1
10
21.408875
20
3.826477
42
-0.121578
0
VERTEX
8
1
10
21.364044
20
3.811462
0
VERTEX
8
1
10
21.354477
20
3.817749
0
VERTEX
8
1
10
21.349716
20
3.831673
0
VERTEX
8
1
10
21.350403
20
3.854080
42
-0.112013
0
VERTEX
8
1
10
21.462433
20
4.091263
42
-0.037312
0
VERTEX
8
1
10
21.679443
20
4.350571
0
VERTEX
8
1
10
21.716461
20
4.392113
42
0.163605
0
VERTEX
8
1
10
21.921234
20
4.839134
42
0.084291
0
VERTEX
8
1
10
21.914597
20
4.919563
42
0.398274
0
VERTEX
8
1
10
21.875824
20
4.935150
42
0.105112
0
VERTEX
8
1
10
21.764008
20
4.859795
42
0.058097
0
VERTEX
8
1
10
21.402954
20
4.454193
42
0.014205
0
VERTEX
8
1
10
21.127136
20
4.056580
42
0.130611
0
VERTEX
8
1
10
21.023926
20
3.682678
42
0.003054
0
VERTEX
8
1
10
21.015656
20
3.296021
42
-0.079442
0
VERTEX
8
1
10
20.980408
20
3.115997
42
-0.614953
0
VERTEX
8
1
10
20.955765
20
3.113335
42
-0.043961
0
VERTEX
8
1
10
20.902344
20
3.209938
42
0.104687
0
VERTEX
8
1
10
20.868073
20
3.248085
0
VERTEX
8
1
10
20.856415
20
3.249176
0
VERTEX
8
1
10
20.845047
20
3.240555
42
0.093709
0
VERTEX
8
1
10
20.805191
20
3.125389
42
0.024934
0
VERTEX
8
1
10
20.755554
20
2.770515
42
0.195838
0
VERTEX
8
1
10
20.641510
20
2.708603
42
0.214232
0
VERTEX
8
1
10
20.632339
20
2.636093
42
-0.441603
0
VERTEX
8
1
10
20.549423
20
2.534653
42
-0.222023
0
VERTEX
8
1
10
20.436600
20
2.567627
42
0.477282
0
VERTEX
8
1
10
20.300568
20
2.537338
42
0.115346
0
VERTEX
8
1
10
20.278366
20
2.467087
0
VERTEX
8
1
10
20.276245
20
2.422272
42
-0.252573
0
VERTEX
8
1
10
20.251862
20
2.367859
42
-0.220837
0
VERTEX
8
1
10
20.215805
20
2.369621
42
-0.063098
0
VERTEX
8
1
10
20.098480
20
2.444168
42
0.462104
0
VERTEX
8
1
10
20.054718
20
2.420952
42
0.070161
0
VERTEX
8
1
10
20.030716
20
2.328949
0
VERTEX
8
1
10
20.006393
20
2.127991
0
VERTEX
8
1
10
20.001572
20
2.108162
42
-0.685067
0
VERTEX
8
1
10
19.974930
20
2.102432
42
-0.096505
0
VERTEX
8
1
10
19.910873
20
2.210785
42
-0.030939
0
VERTEX
8
1
10
19.798904
20
2.518524
0
VERTEX
8
1
10
19.796143
20
2.520775
0
VERTEX
8
1
10
19.793503
20
2.518883
42
-0.209888
0
VERTEX
8
1
10
19.688599
20
2.393562
0
VERTEX
8
1
10
19.671280
20
2.386879
42
-0.515227
0
VERTEX
8
1
10
19.629318
20
2.410233
42
-0.127784
0
VERTEX
8
1
10
19.647812
20
2.531670
42
-0.026712
0
VERTEX
8
1
10
19.700867
20
2.664948
42
0.653732
0
VERTEX
8
1
10
19.669479
20
2.700195
0
VERTEX
8
1
10
19.655319
20
2.699722
42
0.074487
0
VERTEX
8
1
10
19.500519
20
2.643051
0
VERTEX
8
1
10
19.482574
20
2.638588
0
VERTEX
8
1
10
19.471710
20
2.643227
0
VERTEX
8
1
10
19.467300
20
2.655945
42
-0.112478
0
VERTEX
8
1
10
19.509033
20
2.782623
42
-0.056731
0
VERTEX
8
1
10
19.715668
20
3.113472
0
VERTEX
8
1
10
19.726257
20
3.130302
42
0.525431
0
VERTEX
8
1
10
19.706360
20
3.195313
0
VERTEX
8
1
10
19.691040
20
3.200417
42
0.043149
0
VERTEX
8
1
10
19.536880
20
3.208427
0
VERTEX
8
1
10
19.518936
20
3.212379
0
VERTEX
8
1
10
19.510452
20
3.220345
0
VERTEX
8
1
10
19.510422
20
3.232002
0
VERTEX
8
1
10
19.517868
20
3.247032
42
-0.055363
0
VERTEX
8
1
10
19.642151
20
3.370789
42
0.033507
0
VERTEX
8
1
10
19.795242
20
3.528549
42
0.103285
0
VERTEX
8
1
10
19.853729
20
3.644409
42
0.434187
0
VERTEX
8
1
10
19.827148
20
3.680862
0
VERTEX
8
1
10
19.808823
20
3.682343
42
0.080028
0
VERTEX
8
1
10
19.660934
20
3.648582
0
VERTEX
8
1
10
19.639755
20
3.643776
0
VERTEX
8
1
10
19.630066
20
3.653320
0
VERTEX
8
1
10
19.631454
20
3.676666
42
-0.055830
0
VERTEX
8
1
10
19.719971
20
3.870750
42
-0.002793
0
VERTEX
8
1
10
20.021576
20
4.386826
0
VERTEX
8
1
10
20.034485
20
4.412735
42
0.205197
0
VERTEX
8
1
10
20.013809
20
4.763489
42
0.124069
0
VERTEX
8
1
10
19.948120
20
4.830444
0
VERTEX
8
1
10
19.924606
20
4.836861
0
VERTEX
8
1
10
19.901123
20
4.827301
0
VERTEX
8
1
10
19.877792
20
4.803413
0
VERTEX
8
1
10
19.854736
20
4.767128
42
0.048968
0
VERTEX
8
1
10
19.746582
20
4.467072
0
VERTEX
8
1
10
19.658920
20
4.145821
42
-0.103286
0
VERTEX
8
1
10
19.555283
20
3.936684
42
-0.011474
0
VERTEX
8
1
10
19.228241
20
3.508789
42
0.121389
0
VERTEX
8
1
10
19.150391
20
3.338615
42
0.086613
0
VERTEX
8
1
10
19.076767
20
2.337875
0
VERTEX
8
1
10
19.087311
20
2.262489
42
0.069998
0
VERTEX
8
1
10
19.256271
20
1.661003
42
-0.062486
0
VERTEX
8
1
10
19.334030
20
1.431213
42
-0.181217
0
VERTEX
8
1
10
19.327087
20
1.384964
42
-0.328001
0
VERTEX
8
1
10
19.279495
20
1.391167
42
-0.059627
0
VERTEX
8
1
10
19.146744
20
1.504501
0
VERTEX
8
1
10
19.130341
20
1.515106
0
VERTEX
8
1
10
19.117783
20
1.514778
0
VERTEX
8
1
10
19.108627
20
1.504623
42
0.100664
0
VERTEX
8
1
10
19.097076
20
1.370804
42
-0.024954
0
VERTEX
8
1
10
19.098419
20
1.068619
42
-0.127758
0
VERTEX
8
1
10
19.070663
20
0.950951
0
VERTEX
8
1
10
19.062683
20
0.948807
0
VERTEX
8
1
10
19.054596
20
0.956047
0
VERTEX
8
1
10
19.046371
20
0.971489
42
-0.018891
0
VERTEX
8
1
10
18.973587
20
1.244293
42
0.066624
0
VERTEX
8
1
10
18.926804
20
1.362526
42
0.509233
0
VERTEX
8
1
10
18.894501
20
1.366051
42
0.080583
0
VERTEX
8
1
10
18.826630
20
1.216965
42
-0.055882
0
VERTEX
8
1
10
18.747849
20
1.051743
0
VERTEX
8
1
10
18.735062
20
1.043243
0
VERTEX
8
1
10
18.724792
20
1.047768
0
VERTEX
8
1
10
18.716782
20
1.063805
42
-0.064522
0
VERTEX
8
1
10
18.701584
20
1.244850
42
0.016601
0
VERTEX
8
1
10
18.694778
20
1.612747
0
VERTEX
8
1
10
18.690353
20
1.641121
0
VERTEX
8
1
10
18.683258
20
1.653091
0
VERTEX
8
1
10
18.673645
20
1.649834
42
0.101035
0
VERTEX
8
1
10
18.632584
20
1.567291
42
-0.006418
0
VERTEX
8
1
10
18.479675
20
1.135796
0
VERTEX
8
1
10
18.464539
20
1.100861
0
VERTEX
8
1
10
18.447769
20
1.069138
0
VERTEX
8
1
10
18.433167
20
1.071716
0
VERTEX
8
1
10
18.422684
20
1.095924
0
VERTEX
8
1
10
18.416168
20
1.131775
0
VERTEX
8
1
10
18.413330
20
1.177719
42
-0.078770
0
VERTEX
8
1
10
18.551407
20
1.919609
0
VERTEX
8
1
10
18.566772
20
1.953056
42
0.094165
0
VERTEX
8
1
10
18.629074
20
2.155617
42
0.055912
0
VERTEX
8
1
10
18.657898
20
2.838470
0
VERTEX
8
1
10
18.651230
20
2.885277
0
VERTEX
8
1
10
18.642578
20
2.918625
0
VERTEX
8
1
10
18.631943
20
2.936478
42
-0.071317
0
VERTEX
8
1
10
18.404800
20
2.542770
0
VERTEX
8
1
10
18.393280
20
2.531395
0
VERTEX
8
1
10
18.381073
20
2.520767
0
VERTEX
8
1
10
18.399261
20
2.551888
42
0.087595
0
VERTEX
8
1
10
18.458282
20
2.847122
42
0.020883
0
VERTEX
8
1
10
18.462250
20
3.367065
0
VERTEX
8
1
10
18.457169
20
3.383270
0
VERTEX
8
1
10
18.449341
20
3.387192
0
VERTEX
8
1
10
18.439117
20
3.380501
0
VERTEX
8
1
10
18.426834
20
3.364883
42
0.007854
0
VERTEX
8
1
10
18.306412
20
3.137199
42
-0.070279
0
VERTEX
8
1
10
18.266068
20
3.086411
0
VERTEX
8
1
10
18.255295
20
3.094475
0
VERTEX
8
1
10
18.255356
20
3.154305
42
-0.133300
0
VERTEX
8
1
10
18.454361
20
3.697243
42
-0.090531
0
VERTEX
8
1
10
18.659119
20
3.918762
42
0.154526
0
VERTEX
8
1
10
18.768860
20
4.115891
0
VERTEX
8
1
10
18.777924
20
4.153107
42
0.002425
0
VERTEX
8
1
10
18.832291
20
4.484505
0
VERTEX
8
1
10
18.831573
20
4.506882
42
-0.082368
0
VERTEX
8
1
10
18.257141
20
3.858147
0
VERTEX
8
1
10
18.220779
20
3.824677
42
0.191292
0
VERTEX
8
1
10
18.097351
20
3.584702
42
-0.115039
0
VERTEX
8
1
10
18.073257
20
3.525719
0
VERTEX
8
1
10
18.063019
20
3.547836
0
VERTEX
8
1
10
18.059265
20
3.598785
0
VERTEX
8
1
10
18.062393
20
3.652603
0
VERTEX
8
1
10
18.071747
20
3.708633
0
VERTEX
8
1
10
18.082047
20
3.748787
42
-0.126442
0
VERTEX
8
1
10
18.412140
20
4.286377
42
0.120267
0
VERTEX
8
1
10
18.602921
20
4.515831
42
0.038014
0
VERTEX
8
1
10
18.741272
20
4.829498
0
VERTEX
8
1
10
18.766647
20
4.891487
42
0.010807
0
VERTEX
8
1
10
18.977707
20
5.361023
42
0.052044
0
VERTEX
8
1
10
19.029846
20
5.551781
0
VERTEX
8
1
10
19.031693
20
5.588768
42
-0.019238
0
VERTEX
8
1
10
19.010345
20
5.728752
42
-0.009840
0
VERTEX
8
1
10
18.999298
20
6.060440
42
0.052021
0
VERTEX
8
1
10
18.983704
20
6.161423
0
VERTEX
8
1
10
18.975403
20
6.178062
42
0.233626
0
VERTEX
8
1
10
18.935928
20
6.193771
0
VERTEX
8
1
10
18.935654
20
6.191872
42
-0.460260
0
VERTEX
8
1
10
18.851379
20
6.010750
0
VERTEX
8
1
10
18.834915
20
6.004364
0
VERTEX
8
1
10
18.818100
20
5.998924
0
VERTEX
8
1
10
18.757309
20
5.879257
0
VERTEX
8
1
10
18.756165
20
5.877403
42
0.269065
0
VERTEX
8
1
10
18.706970
20
5.862793
42
0.061871
0
VERTEX
8
1
10
18.653427
20
5.820152
42
-0.260765
0
VERTEX
8
1
10
18.651230
20
5.788498
42
-0.061024
0
VERTEX
8
1
10
18.599075
20
5.703293
0
VERTEX
8
1
10
18.597198
20
5.704674
42
0.346967
0
VERTEX
8
1
10
18.536636
20
5.749382
42
0.214251
0
VERTEX
8
1
10
18.479004
20
5.733910
42
0.225209
0
VERTEX
8
1
10
18.476074
20
5.700569
0
VERTEX
8
1
10
18.482544
20
5.677414
42
-0.117757
0
VERTEX
8
1
10
18.503265
20
5.527496
42
-0.252503
0
VERTEX
8
1
10
18.451355
20
5.455185
42
0.066413
0
VERTEX
8
1
10
18.285843
20
5.325607
0
VERTEX
8
1
10
18.298370
20
5.328232
42
-0.248881
0
VERTEX
8
1
10
18.374130
20
5.320015
0
VERTEX
8
1
10
18.380905
20
5.312286
42
-0.627660
0
VERTEX
8
1
10
18.364426
20
5.259796
0
VERTEX
8
1
10
18.339722
20
5.252678
0
VERTEX
8
1
10
18.314667
20
5.246880
42
0.032488
0
VERTEX
8
1
10
18.138351
20
5.216423
42
-0.191625
0
VERTEX
8
1
10
18.190872
20
5.180717
42
-0.616481
0
VERTEX
8
1
10
18.160995
20
5.139000
0
VERTEX
8
1
10
18.149765
20
5.139618
42
-0.007945
0
VERTEX
8
1
10
17.966507
20
5.183411
42
0.057003
0
VERTEX
8
1
10
17.876190
20
5.192757
0
VERTEX
8
1
10
17.876175
20
5.190231
42
-0.427802
0
VERTEX
8
1
10
17.881119
20
5.104027
42
-0.103336
0
VERTEX
8
1
10
17.849655
20
5.069580
0
VERTEX
8
1
10
17.847656
20
5.072220
42
0.268857
0
VERTEX
8
1
10
17.718567
20
5.218391
42
0.273500
0
VERTEX
8
1
10
17.672791
20
5.191467
42
-0.180463
0
VERTEX
8
1
10
17.542236
20
5.108437
0
VERTEX
8
1
10
17.563400
20
5.139870
42
0.430047
0
VERTEX
8
1
10
17.545914
20
5.211998
42
0.175707
0
VERTEX
8
1
10
17.496140
20
5.209602
0
VERTEX
8
1
10
17.475662
20
5.204819
42
-0.129705
0
VERTEX
8
1
10
17.343109
20
5.190063
0
VERTEX
8
1
10
17.342255
20
5.192085
0
VERTEX
8
1
10
17.342438
20
5.194283
42
0.287227
0
VERTEX
8
1
10
17.313019
20
5.331329
42
0.405619
0
VERTEX
8
1
10
17.277176
20
5.320457
0
VERTEX
8
1
10
17.260941
20
5.299393
42
-0.005976
0
VERTEX
8
1
10
17.175308
20
5.161781
42
-0.656581
0
VERTEX
8
1
10
17.133560
20
5.168190
0
VERTEX
8
1
10
17.125229
20
5.179855
42
0.142778
0
VERTEX
8
1
10
16.973770
20
5.351913
42
-0.168922
0
VERTEX
8
1
10
16.907898
20
5.363586
0
VERTEX
8
1
10
16.827469
20
5.398811
42
-0.529433
0
VERTEX
8
1
10
16.816757
20
5.419342
42
0.167750
0
VERTEX
8
1
10
16.847122
20
5.529991
42
0.043610
0
VERTEX
8
1
10
16.818298
20
5.705322
0
VERTEX
8
1
10
16.816605
20
5.704369
0
VERTEX
8
1
10
16.803619
20
5.649117
0
VERTEX
8
1
10
16.799774
20
5.638962
42
-0.654321
0
VERTEX
8
1
10
16.708435
20
5.628410
0
VERTEX
8
1
10
16.705307
20
5.637871
42
-0.040598
0
VERTEX
8
1
10
16.714035
20
5.774689
42
0.198622
0
VERTEX
8
1
10
16.701630
20
5.836868
42
0.248442
0
VERTEX
8
1
10
16.669205
20
5.842598
0
VERTEX
8
1
10
16.646439
20
5.836655
42
-0.112528
0
VERTEX
8
1
10
16.482956
20
5.813416
42
-0.308778
0
VERTEX
8
1
10
16.477829
20
5.819725
42
0.225985
0
VERTEX
8
1
10
16.469284
20
5.925568
42
0.065400
0
VERTEX
8
1
10
16.431061
20
5.995155
0
VERTEX
8
1
10
16.428757
20
5.994797
42
-0.303021
0
VERTEX
8
1
10
16.386246
20
5.982162
42
-0.079481
0
VERTEX
8
1
10
16.284744
20
6.030945
0
VERTEX
8
1
10
16.284424
20
6.034355
0
VERTEX
8
1
10
16.285645
20
6.037560
42
0.248854
0
VERTEX
8
1
10
16.339859
20
6.162613
42
0.062751
0
VERTEX
8
1
10
16.335831
20
6.240173
0
VERTEX
8
1
10
16.315063
20
6.203835
42
-0.479245
0
VERTEX
8
1
10
16.215210
20
6.179993
42
-0.203214
0
VERTEX
8
1
10
16.201492
20
6.227074
42
0.069579
0
VERTEX
8
1
10
16.182724
20
6.400139
0
VERTEX
8
1
10
16.181412
20
6.400749
0
VERTEX
8
1
10
16.177917
20
6.394684
42
-0.841047
0
VERTEX
8
1
10
16.113754
20
6.402954
42
-0.107057
0
VERTEX
8
1
10
16.137497
20
6.502151
42
-0.033388
0
VERTEX
8
1
10
16.193542
20
6.624542
0
VERTEX
8
1
10
16.089096
20
6.666306
0
VERTEX
8
1
10
16.072632
20
6.674187
42
-0.599169
0
VERTEX
8
1
10
16.064362
20
6.718559
0
VERTEX
8
1
10
16.072174
20
6.729073
42
0.166914
0
VERTEX
8
1
10
16.132599
20
6.828934
42
0.093538
0
VERTEX
8
1
10
16.118347
20
6.902008
0
VERTEX
8
1
10
16.116043
20
6.902763
42
-0.284255
0
VERTEX
8
1
10
16.041183
20
6.908119
42
-0.146623
0
VERTEX
8
1
10
15.990311
20
6.950638
0
VERTEX
8
1
10
15.989716
20
6.957375
42
-0.131825
0
VERTEX
8
1
10
16.031662
20
7.009270
42
0.218308
0
VERTEX
8
1
10
16.068710
20
7.136360
42
0.053464
0
VERTEX
8
1
10
16.065979
20
7.163017
42
-0.618820
0
VERTEX
8
1
10
16.038330
20
7.167610
42
-0.088869
0
VERTEX
8
1
10
16.010468
20
7.229057
0
VERTEX
8
1
10
16.012329
20
7.231865
42
0.241774
0
VERTEX
8
1
10
16.059631
20
7.290024
42
0.060454
0
VERTEX
8
1
10
16.083923
20
7.367432
0
VERTEX
8
1
10
16.081940
20
7.369209
0
VERTEX
8
1
10
16.077988
20
7.368462
42
-0.319729
0
VERTEX
8
1
10
15.897720
20
7.379448
42
-0.361112
0
VERTEX
8
1
10
15.902939
20
7.411911
0
VERTEX
8
1
10
15.911148
20
7.422951
0
VERTEX
8
1
10
15.920349
20
7.433182
0
VERTEX
8
1
10
15.930450
20
7.442520
42
0.175620
0
VERTEX
8
1
10
16.021088
20
7.589989
0
VERTEX
8
1
10
16.018799
20
7.591469
42
-0.235571
0
VERTEX
8
1
10
15.907913
20
7.620255
42
-0.045316
0
VERTEX
8
1
10
15.857864
20
7.663055
42
-0.530401
0
VERTEX
8
1
10
15.862793
20
7.669212
42
0.273033
0
VERTEX
8
1
10
15.971390
20
7.763412
42
0.061686
0
VERTEX
8
1
10
15.988480
20
7.807686
0
VERTEX
8
1
10
15.985733
20
7.809792
0
VERTEX
8
1
10
15.980576
20
7.810143
42
-0.233912
0
VERTEX
8
1
10
15.843704
20
7.850609
42
-0.048942
0
VERTEX
8
1
10
15.785919
20
7.902283
0
VERTEX
8
1
10
15.787704
20
7.903801
0
VERTEX
8
1
10
15.834686
20
7.901711
42
0.302140
0
VERTEX
8
1
10
15.925659
20
7.977242
0
VERTEX
8
1
10
15.922440
20
7.979195
42
-0.184003
0
VERTEX
8
1
10
15.759659
20
8.055405
42
-0.037892
0
VERTEX
8
1
10
15.722794
20
8.090187
0
VERTEX
8
1
10
15.724701
20
8.091393
42
0.231515
0
VERTEX
8
1
10
15.808197
20
8.108818
42
0.154416
0
VERTEX
8
1
10
15.832642
20
8.165924
0
VERTEX
8
1
10
15.829193
20
8.168198
42
-0.148791
0
VERTEX
8
1
10
15.706161
20
8.237923
42
-0.025498
0
VERTEX
8
1
10
15.638016
20
8.307335
0
VERTEX
8
1
10
15.671387
20
8.294167
42
0.614275
0
VERTEX
8
1
10
15.693802
20
8.314468
42
0.158859
0
VERTEX
8
1
10
15.688644
20
8.342178
0
VERTEX
8
1
10
15.685379
20
8.342972
42
-0.168510
0
VERTEX
8
1
10
15.535049
20
8.398430
0
VERTEX
8
1
10
15.534103
20
8.405411
0
VERTEX
8
1
10
15.538895
20
8.411285
0
VERTEX
8
1
10
15.552917
20
8.417435
0
VERTEX
8
1
10
15.567398
20
8.422401
42
0.069219
0
VERTEX
8
1
10
15.695923
20
8.458359
42
0.279928
0
VERTEX
8
1
10
15.720001
20
8.509041
42
-0.239979
0
VERTEX
8
1
10
15.613800
20
8.559814
42
-0.395051
0
VERTEX
8
1
10
15.634476
20
8.600525
0
VERTEX
8
1
10
15.648331
20
8.611084
42
0.127308
0
VERTEX
8
1
10
15.765411
20
8.714722
42
0.111475
0
VERTEX
8
1
10
15.783096
20
8.810654
0
VERTEX
8
1
10
15.780807
20
8.811722
42
-0.293041
0
VERTEX
8
1
10
15.737183
20
8.836563
42
-0.069371
0
VERTEX
8
1
10
15.688583
20
8.931885
0
VERTEX
8
1
10
15.688980
20
8.935806
42
0.357830
0
VERTEX
8
1
10
15.747757
20
8.978180
42
0.077035
0
VERTEX
8
1
10
15.771072
20
9.056534
0
VERTEX
8
1
10
15.762680
20
9.050125
0
VERTEX
8
1
10
15.753876
20
9.044289
42
-0.636153
0
VERTEX
8
1
10
15.670456
20
9.083199
0
VERTEX
8
1
10
15.672989
20
9.092201
0
VERTEX
8
1
10
15.703033
20
9.163162
42
0.085802
0
VERTEX
8
1
10
15.716751
20
9.270241
42
-0.122290
0
VERTEX
8
1
10
15.757782
20
9.398010
0
VERTEX
8
1
10
15.768082
20
9.408829
42
0.193738
0
VERTEX
8
1
10
15.838364
20
9.511055
42
-0.021258
0
VERTEX
8
1
10
15.883240
20
9.629227
0
VERTEX
8
1
10
15.883560
20
9.637039
0
VERTEX
8
1
10
15.875885
20
9.636475
0
VERTEX
8
1
10
15.861237
20
9.628647
42
0.006915
0
VERTEX
8
1
10
15.592316
20
9.421669
42
-0.047220
0
VERTEX
8
1
10
15.513763
20
9.375603
42
0.276123
0
VERTEX
8
1
10
15.450897
20
9.335808
42
0.005141
0
VERTEX
8
1
10
15.362595
20
9.194633
0
VERTEX
8
1
10
15.344910
20
9.171799
0
VERTEX
8
1
10
15.332352
20
9.163712
42
-0.050495
0
VERTEX
8
1
10
15.020798
20
9.084747
42
-0.136379
0
VERTEX
8
1
10
14.971100
20
9.090935
0
VERTEX
8
1
10
14.964966
20
9.099426
0
VERTEX
8
1
10
14.995300
20
9.121216
0
VERTEX
8
1
10
15.007492
20
9.136406
42
0.182497
0
VERTEX
8
1
10
15.010880
20
9.243942
42
0.042974
0
VERTEX
8
1
10
14.941895
20
9.415321
42
-0.056257
0
VERTEX
8
1
10
14.699524
20
9.337540
42
-0.167825
0
VERTEX
8
1
10
14.656586
20
9.342552
0
VERTEX
8
1
10
14.652084
20
9.351418
0
VERTEX
8
1
10
14.681427
20
9.355148
0
VERTEX
8
1
10
14.711395
20
9.361206
42
0.446140
0
VERTEX
8
1
10
14.767334
20
9.464867
0
VERTEX
8
1
10
14.762115
20
9.485725
42
0.152402
0
VERTEX
8
1
10
14.600510
20
9.689384
42
-0.105033
0
VERTEX
8
1
10
14.461487
20
9.840523
42
-0.101890
0
VERTEX
8
1
10
14.443634
20
9.915993
42
-0.075924
0
VERTEX
8
1
10
14.556686
20
9.866287
42
0.105478
0
VERTEX
8
1
10
14.665329
20
9.833061
42
0.295736
0
VERTEX
8
1
10
14.706070
20
9.863754
42
0.222564
0
VERTEX
8
1
10
14.701080
20
9.952011
42
0.174555
0
VERTEX
8
1
10
14.586105
20
10.043213
42
0.148337
0
VERTEX
8
1
10
14.126083
20
10.056572
42
-0.327325
0
VERTEX
8
1
10
14.056686
20
10.102699
0
VERTEX
8
1
10
14.048965
20
10.118034
42
-0.055624
0
VERTEX
8
1
10
14.012375
20
10.310394
0
VERTEX
8
1
10
14.004898
20
10.359825
42
0.338923
0
VERTEX
8
1
10
13.952332
20
10.407410
42
0.095396
0
VERTEX
8
1
10
13.803741
20
10.388611
42
-0.061944
0
VERTEX
8
1
10
13.562012
20
10.353996
42
-0.173067
0
VERTEX
8
1
10
13.497253
20
10.368164
0
VERTEX
8
1
10
13.496368
20
10.377068
0
VERTEX
8
1
10
13.502991
20
10.387436
0
VERTEX
8
1
10
13.516129
20
10.398933
42
-0.090935
0
VERTEX
8
1
10
13.787003
20
10.501312
42
0.349400
0
VERTEX
8
1
10
13.811768
20
10.521187
0
VERTEX
8
1
10
13.807449
20
10.530258
0
VERTEX
8
1
10
13.794800
20
10.543106
0
VERTEX
8
1
10
13.781342
20
10.555092
42
-0.074489
0
VERTEX
8
1
10
13.663498
20
10.654663
42
-0.175436
0
VERTEX
8
1
10
13.653503
20
10.694748
0
VERTEX
8
1
10
13.663330
20
10.704979
0
VERTEX
8
1
10
13.681442
20
10.710464
0
VERTEX
8
1
10
13.706818
20
10.711617
0
VERTEX
8
1
10
13.745773
20
10.707382
0
VERTEX
8
1
10
13.784439
20
10.700966
42
-0.068168
0
VERTEX
8
1
10
14.256989
20
10.518333
42
0.150166
0
VERTEX
8
1
10
14.500183
20
10.484947
42
0.029565
0
VERTEX
8
1
10
14.674500
20
10.507744
0
VERTEX
8
1
10
14.692490
20
10.514603
42
0.407147
0
VERTEX
8
1
10
14.751862
20
10.637749
42
0.208937
0
VERTEX
8
1
10
14.681915
20
10.734406
42
0.067803
0
VERTEX
8
1
10
14.543427
20
10.753700
42
-0.072986
0
VERTEX
8
1
10
14.344208
20
10.789757
42
-0.151908
0
VERTEX
8
1
10
14.257278
20
10.851837
0
VERTEX
8
1
10
14.294434
20
10.851707
42
0.234692
0
VERTEX
8
1
10
14.468964
20
10.923592
42
0.274935
0
VERTEX
8
1
10
14.489075
20
11.148613
42
0.208061
0
VERTEX
8
1
10
14.418427
20
11.192551
42
-0.020890
0
VERTEX
8
1
10
14.250687
20
11.236076
42
0.056432
0
VERTEX
8
1
10
14.082169
20
11.251923
0
VERTEX
8
1
10
14.051514
20
11.254784
42
-0.170295
0
VERTEX
8
1
10
13.922684
20
11.306587
42
-0.054631
0
VERTEX
8
1
10
13.765137
20
11.442924
42
-0.108244
0
VERTEX
8
1
10
13.738113
20
11.497360
0
VERTEX
8
1
10
13.739929
20
11.511688
0
VERTEX
8
1
10
13.747818
20
11.524284
42
-0.274075
0
VERTEX
8
1
10
13.853714
20
11.538757
42
-0.031304
0
VERTEX
8
1
10
13.987183
20
11.470619
42
0.325045
0
VERTEX
8
1
10
14.162781
20
11.486115
42
-0.085128
0
VERTEX
8
1
10
14.547821
20
11.672592
42
0.054416
0
VERTEX
8
1
10
14.673981
20
11.729355
0
VERTEX
8
1
10
14.687607
20
11.740402
42
0.386932
0
VERTEX
8
1
10
14.711349
20
11.860886
42
0.359409
0
VERTEX
8
1
10
14.598938
20
11.923508
42
-0.009132
0
VERTEX
8
1
10
14.223938
20
11.908134
42
-0.129712
0
VERTEX
8
1
10
13.971802
20
11.973976
0
VERTEX
8
1
10
13.983322
20
11.979424
42
0.082592
0
VERTEX
8
1
10
14.157471
20
12.035675
42
-0.010550
0
VERTEX
8
1
10
14.415283
20
12.155457
42
-0.134950
0
VERTEX
8
1
10
14.648727
20
12.186241
42
0.017255
0
VERTEX
8
1
10
14.924149
20
12.157700
42
0.118822
0
VERTEX
8
1
10
15.060287
20
12.194756
42
-0.095400
0
VERTEX
8
1
10
15.257858
20
12.245926
0
VERTEX
8
1
10
15.284348
20
12.244667
42
-0.063680
0
VERTEX
8
1
10
15.488907
20
12.183174
42
0.116523
0
VERTEX
8
1
10
15.623108
20
12.169373
42
0.523849
0
VERTEX
8
1
10
15.666260
20
12.241852
42
0.323419
0
VERTEX
8
1
10
15.574966
20
12.313332
42
-0.156703
0
VERTEX
8
1
10
15.512360
20
12.359543
42
0.071942
0
VERTEX
8
1
10
15.297363
20
12.546516
42
0.273315
0
VERTEX
8
1
10
15.128098
20
12.538879
0
VERTEX
8
1
10
15.106644
20
12.527100
0
VERTEX
8
1
10
15.085602
20
12.514603
42
-0.168753
0
VERTEX
8
1
10
14.899567
20
12.450584
42
0.018562
0
VERTEX
8
1
10
14.528351
20
12.431099
42
0.023276
0
VERTEX
8
1
10
14.396225
20
12.396988
42
-0.252263
0
VERTEX
8
1
10
14.300110
20
12.423477
0
VERTEX
8
1
10
14.246780
20
12.463753
42
0.332094
0
VERTEX
8
1
10
14.180817
20
12.457405
42
-0.010142
0
VERTEX
8
1
10
14.111679
20
12.395699
42
-0.346737
0
VERTEX
8
1
10
14.066055
20
12.396996
42
0.359198
0
VERTEX
8
1
10
14.023911
20
12.386597
0
VERTEX
8
1
10
14.010956
20
12.375084
0
VERTEX
8
1
10
13.999069
20
12.362495
42
-0.157178
0
VERTEX
8
1
10
13.839111
20
12.236824
42
-0.101038
0
VERTEX
8
1
10
13.753036
20
12.230537
42
-0.519908
0
VERTEX
8
1
10
13.726974
20
12.271965
0
VERTEX
8
1
10
13.736801
20
12.295341
42
-0.050953
0
VERTEX
8
1
10
13.897339
20
12.485962
0
VERTEX
8
1
10
13.927979
20
12.519302
42
0.079493
0
VERTEX
8
1
10
14.043930
20
12.674454
42
-0.385107
0
VERTEX
8
1
10
14.117279
20
12.702614
0
VERTEX
8
1
10
14.193253
20
12.674881
42
0.097922
0
VERTEX
8
1
10
14.369095
20
12.674103
42
0.206986
0
VERTEX
8
1
10
14.391693
20
12.699860
0
VERTEX
8
1
10
14.407028
20
12.739929
42
-0.321351
0
VERTEX
8
1
10
14.470215
20
12.767189
42
-0.096488
0
VERTEX
8
1
10
14.592087
20
12.727142
42
0.235043
0
VERTEX
8
1
10
14.713013
20
12.753548
42
0.171439
0
VERTEX
8
1
10
14.926071
20
13.041985
0
VERTEX
8
1
10
14.924454
20
13.044693
0
VERTEX
8
1
10
14.920197
20
13.044243
42
-0.253656
0
VERTEX
8
1
10
14.728058
20
13.031967
42
-0.518822
0
VERTEX
8
1
10
14.723160
20
13.066154
42
-0.098189
0
VERTEX
8
1
10
14.838303
20
13.137184
42
-0.035776
0
VERTEX
8
1
10
15.127991
20
13.245461
42
-0.156644
0
VERTEX
8
1
10
15.322189
20
13.220299
0
VERTEX
8
1
10
15.353455
20
13.207108
42
0.124165
0
VERTEX
8
1
10
15.787964
20
13.098564
42
0.123926
0
VERTEX
8
1
10
15.887726
20
13.118286
42
0.568467
0
VERTEX
8
1
10
15.884506
20
13.152962
0
VERTEX
8
1
10
15.872604
20
13.162720
42
0.098597
0
VERTEX
8
1
10
15.680099
20
13.231895
0
VERTEX
8
1
10
15.671677
20
13.239098
0
VERTEX
8
1
10
15.673843
20
13.248856
0
VERTEX
8
1
10
15.685333
20
13.260971
42
-0.040165
0
VERTEX
8
1
10
15.848907
20
13.357124
42
0.044871
0
VERTEX
8
1
10
16.040726
20
13.484451
0
VERTEX
8
1
10
16.061432
20
13.505173
0
VERTEX
8
1
10
16.080612
20
13.527313
0
VERTEX
8
1
10
16.075424
20
13.690041
42
-0.008194
0
VERTEX
8
1
10
15.984741
20
16.256302
0
VERTEX
8
1
10
15.762787
20
16.258110
42
-0.006603
0
VERTEX
8
1
10
13.698853
20
16.191132
42
0.016190
0
VERTEX
8
1
10
13.509705
20
15.891548
42
-0.316386
0
VERTEX
8
1
10
13.334366
20
15.834831
42
-0.091466
0
VERTEX
8
1
10
13.192673
20
15.900505
42
-0.051431
0
VERTEX
8
1
10
12.955765
20
16.424408
0
VERTEX
8
1
10
12.940659
20
16.462669
42
-0.151792
0
VERTEX
8
1
10
12.913315
20
16.669479
42
-0.094188
0
VERTEX
8
1
10
13.047028
20
17.022926
42
-0.025901
0
VERTEX
8
1
10
13.190796
20
17.248947
0
VERTEX
8
1
10
13.218307
20
17.273575
0
VERTEX
8
1
10
13.253006
20
17.278313
0
VERTEX
8
1
10
13.286697
20
17.275017
42
-0.166205
0
VERTEX
8
1
10
13.457367
20
17.148140
42
-0.050932
0
VERTEX
8
1
10
13.548706
20
17.001915
0
VERTEX
8
1
10
13.553421
20
17.000755
42
0.003332
0
VERTEX
8
1
10
15.905518
20
16.979042
0
VERTEX
8
1
10
15.973297
20
17.011086
0
VERTEX
8
1
10
15.970337
20
17.458572
42
0.016758
0
VERTEX
8
1
10
15.681870
20
17.647308
42
-0.357952
0
VERTEX
8
1
10
15.625015
20
17.846298
42
-0.082298
0
VERTEX
8
1
10
15.687271
20
17.969238
42
-0.054656
0
VERTEX
8
1
10
16.222214
20
18.198982
42
-0.160937
0
VERTEX
8
1
10
16.440231
20
18.239555
42
-0.098223
0
VERTEX
8
1
10
16.789917
20
18.111153
42
-0.029017
0
VERTEX
8
1
10
17.056412
20
17.935211
42
-0.258702
0
VERTEX
8
1
10
17.023087
20
17.777344
42
-0.111618
0
VERTEX
8
1
10
16.815628
20
17.612755
0
VERTEX
8
1
10
16.782211
20
17.596107
0
VERTEX
8
1
10
16.765564
20
17.026207
0
VERTEX
8
1
10
16.818909
20
16.972458
42
-0.005722
0
VERTEX
8
1
10
20.300659
20
16.874435
42
-0.007585
0
VERTEX
8
1
10
20.665970
20
16.852119
0
VERTEX
8
1
10
20.712479
20
16.841469
42
-0.288535
0
VERTEX
8
1
10
20.737991
20
16.790154
42
-0.194963
0
VERTEX
8
1
10
20.667816
20
16.731377
42
-0.063154
0
VERTEX
8
1
10
20.294098
20
16.634804
42
-0.016772
0
VERTEX
8
1
10
17.906418
20
16.385208
42
-0.004313
0
VERTEX
8
1
10
16.859863
20
16.314941
0
VERTEX
8
1
10
16.745407
20
16.266838
42
0.004030
0
VERTEX
8
1
10
16.720978
20
14.945465
0
VERTEX
8
1
10
16.707184
20
14.422234
0
VERTEX
8
1
10
16.708481
20
14.407227
42
-0.070548
0
VERTEX
8
1
10
16.830551
20
14.563881
0
VERTEX
8
1
10
16.841232
20
14.569237
0
VERTEX
8
1
10
16.852646
20
14.572823
42
0.207166
0
VERTEX
8
1
10
16.979568
20
14.637192
0
VERTEX
8
1
10
16.985367
20
14.648399
42
0.146752
0
VERTEX
8
1
10
16.986374
20
14.747841
0
VERTEX
8
1
10
16.984863
20
14.763184
42
-0.409135
0
VERTEX
8
1
10
17.039215
20
14.849144
42
-0.235159
0
VERTEX
8
1
10
17.097977
20
14.822258
0
VERTEX
8
1
10
17.117935
20
14.805771
42
0.097892
0
VERTEX
8
1
10
17.227783
20
14.722977
42
0.213774
0
VERTEX
8
1
10
17.324081
20
14.738464
42
0.076451
0
VERTEX
8
1
10
17.463440
20
14.851517
42
-0.167838
0
VERTEX
8
1
10
17.698105
20
14.979317
42
0.462263
0
VERTEX
8
1
10
17.740158
20
15.049973
42
0.182807
0
VERTEX
8
1
10
17.613388
20
15.220695
0
VERTEX
8
1
10
17.595352
20
15.236168
0
VERTEX
8
1
10
17.594727
20
15.238358
0
VERTEX
8
1
10
17.596252
20
15.239731
42
0.396948
0
VERTEX
8
1
10
17.654312
20
15.304123
42
0.103181
0
VERTEX
8
1
10
17.648880
20
15.419312
42
-0.079203
0
VERTEX
8
1
10
17.654266
20
15.551796
42
-0.469027
0
VERTEX
8
1
10
17.682007
20
15.571671
42
-0.115077
0
VERTEX
8
1
10
17.764099
20
15.487312
42
0.015077
0
VERTEX
8
1
10
17.964355
20
15.207863
42
0.085809
0
VERTEX
8
1
10
18.011902
20
15.207527
42
-0.099764
0
VERTEX
8
1
10
18.050751
20
15.195694
42
-0.006029
0
VERTEX
8
1
10
17.465240
20
15.827652
42
-0.340094
0
VERTEX
8
1
10
17.465317
20
15.879089
42
-0.384050
0
VERTEX
8
1
10
17.499130
20
15.872536
0
VERTEX
8
1
10
17.528580
20
15.852097
42
0.000293
0
VERTEX
8
1
10
18.315659
20
15.269897
42
0.200510
0
VERTEX
8
1
10
18.368774
20
15.281670
0
VERTEX
8
1
10
18.389816
20
15.292221
42
-0.084815
0
VERTEX
8
1
10
18.599442
20
15.390419
0
VERTEX
8
1
10
18.611725
20
15.392471
42
-0.087866
0
VERTEX
8
1
10
18.678925
20
15.457870
42
-0.391828
0
VERTEX
8
1
10
18.741959
20
15.441643
42
-0.065691
0
VERTEX
8
1
10
18.767166
20
15.406822
0
VERTEX
8
1
10
18.779816
20
15.402367
0
VERTEX
8
1
10
18.951767
20
15.406693
0
VERTEX
8
1
10
18.964630
20
15.417870
42
-0.209777
0
VERTEX
8
1
10
19.105194
20
15.509010
42
-0.008262
0
VERTEX
8
1
10
19.416611
20
16.324577
0
VERTEX
8
1
10
19.446548
20
16.393456
42
-0.256457
0
VERTEX
8
1
10
19.479523
20
16.432808
42
-0.347326
0
VERTEX
8
1
10
19.495300
20
16.398247
0
VERTEX
8
1
10
19.491821
20
16.378571
42
-0.005986
0
VERTEX
8
1
10
19.379791
20
15.894241
42
0.006669
0
VERTEX
8
1
10
19.289612
20
15.389946
0
VERTEX
8
1
10
19.315735
20
15.380920
0
VERTEX
8
1
10
19.320480
20
15.384537
0
VERTEX
8
1
10
19.434219
20
15.505646
42
-0.105414
0
VERTEX
8
1
10
19.589737
20
15.583496
0
VERTEX
8
1
10
19.631897
20
15.596413
42
0.026568
0
VERTEX
8
1
10
19.755432
20
15.626740
42
0.260828
0
VERTEX
8
1
10
19.774429
20
15.653816
42
-0.091948
0
VERTEX
8
1
10
19.846039
20
15.802780
0
VERTEX
8
1
10
20.221451
20
16.466240
42
-0.053404
0
VERTEX
8
1
10
20.316391
20
16.610443
42
-0.469693
0
VERTEX
8
1
10
20.333038
20
16.590851
42
-0.096000
0
VERTEX
8
1
10
20.316116
20
16.514397
42
0.006610
0
VERTEX
8
1
10
19.974152
20
15.642792
0
VERTEX
8
1
10
19.966599
20
15.619057
0
VERTEX
8
1
10
19.965012
20
15.611481
42
0.544302
0
VERTEX
8
1
10
19.992126
20
15.580460
42
0.106340
0
VERTEX
8
1
10
20.262344
20
15.527924
0
VERTEX
8
1
10
20.395905
20
15.528603
42
-0.106619
0
VERTEX
8
1
10
20.851593
20
15.429054
42
-0.016750
0
VERTEX
8
1
10
20.764297
20
15.784584
0
VERTEX
8
1
10
20.788452
20
15.779648
42
-0.068606
0
VERTEX
8
1
10
21.040176
20
15.650101
42
-0.040329
0
VERTEX
8
1
10
21.390411
20
15.373993
0
VERTEX
8
1
10
21.850189
20
15.651787
42
-1.023684
0
VERTEX
8
1
10
21.861542
20
15.631226
42
-0.069914
0
VERTEX
8
1
10
21.834991
20
15.602585
42
-0.007238
0
VERTEX
8
1
10
21.473145
20
15.278267
0
VERTEX
8
1
10
21.507980
20
15.238876
0
VERTEX
8
1
10
21.523621
20
15.243179
42
-0.091188
0
VERTEX
8
1
10
21.843750
20
15.246742
42
-0.168329
0
VERTEX
8
1
10
22.117325
20
15.066475
42
-0.022294
0
VERTEX
8
1
10
22.194565
20
14.961662
42
-0.154923
0
VERTEX
8
1
10
22.330078
20
14.898003
42
-0.084171
0
VERTEX
8
1
10
22.408920
20
14.960678
42
0.006352
0
VERTEX
8
1
10
23.232040
20
15.519188
0
VERTEX
8
1
10
23.312210
20
15.571846
42
-0.926164
0
VERTEX
8
1
10
23.328445
20
15.555191
0
VERTEX
8
1
10
23.324997
20
15.550117
42
0.022577
0
VERTEX
8
1
10
23.183228
20
15.407974
42
0.000812
0
VERTEX
8
1
10
22.613144
20
14.838310
42
0.050641
0
VERTEX
8
1
10
22.589478
20
14.800560
42
-0.010253
0
VERTEX
8
1
10
23.708572
20
14.675224
0
VERTEX
8
1
10
23.721954
20
14.672234
42
-1.025952
0
VERTEX
8
1
10
23.719040
20
14.638893
0
VERTEX
8
1
10
23.175064
20
14.614319
0
VERTEX
8
1
10
23.140350
20
14.611885
42
0.006387
0
VERTEX
8
1
10
22.532074
20
14.539024
0
VERTEX
8
1
10
22.464493
20
14.538307
42
0.228429
0
VERTEX
8
1
10
22.452927
20
14.518272
42
-0.033662
0
VERTEX
8
1
10
22.469849
20
14.386353
0
VERTEX
8
1
10
22.482422
20
14.338203
42
-0.030051
0
VERTEX
8
1
10
22.542252
20
13.917023
42
-0.059467
0
VERTEX
8
1
10
22.609680
20
13.807648
42
-0.160618
0
VERTEX
8
1
10
22.609894
20
13.790833
42
-0.106730
0
VERTEX
8
1
10
22.974838
20
13.689751
42
-0.444380
0
VERTEX
8
1
10
22.994766
20
13.587448
0
VERTEX
8
1
10
22.978287
20
13.563690
42
-0.085672
0
VERTEX
8
1
10
22.796234
20
13.415077
42
0.314788
0
VERTEX
8
1
10
22.771912
20
13.340027
42
0.092885
0
VERTEX
8
1
10
22.788971
20
13.278046
42
-0.005865
0
VERTEX
8
1
10
22.997162
20
13.234535
42
-0.094928
0
VERTEX
8
1
10
23.073410
20
13.280769
42
-0.472543
0
VERTEX
8
1
10
23.100281
20
13.249596
42
-0.019781
0
VERTEX
8
1
10
23.103928
20
13.204025
0
VERTEX
8
1
10
23.139725
20
13.190750
42
-0.256438
0
VERTEX
8
1
10
23.292557
20
12.829994
42
-0.077799
0
VERTEX
8
1
10
23.273636
20
12.738838
42
0.064635
0
VERTEX
8
1
10
23.254272
20
12.643082
42
0.297478
0
VERTEX
8
1
10
23.270737
20
12.625099
0
VERTEX
8
1
10
23.308838
20
12.609383
42
0.039433
0
VERTEX
8
1
10
23.496902
20
12.579521
42
0.000804
0
VERTEX
8
1
10
24.430939
20
12.482483
42
-0.196457
0
SEQEND
0
POLYLINE
8
1
66
1
70
1
0
VERTEX
8
1
10
15.397507
20
12.805679
42
-0.026491
0
VERTEX
8
1
10
15.204865
20
12.780678
42
0.202041
0
VERTEX
8
1
10
15.323196
20
12.942520
42
0.872516
0
VERTEX
8
1
10
15.261597
20
12.948921
42
-0.258303
0
VERTEX
8
1
10
15.114639
20
12.807701
0
VERTEX
8
1
10
15.057541
20
12.796776
42
0.862827
0
VERTEX
8
1
10
15.056610
20
12.731316
42
0.117505
0
VERTEX
8
1
10
15.135590
20
12.716522
42
0.055658
0
VERTEX
8
1
10
15.414764
20
12.745934
42
0.903329
0
SEQEND
0
POLYLINE
8
1
66
1
70
1
0
VERTEX
8
1
10
22.599472
20
12.154076
42
0.042785
0
VERTEX
8
1
10
22.827652
20
12.366501
42
0.057234
0
VERTEX
8
1
10
22.964767
20
12.644981
42
0.207214
0
VERTEX
8
1
10
22.963562
20
12.688744
42
0.042974
0
VERTEX
8
1
10
22.882339
20
12.812607
0
VERTEX
8
1
10
22.807831
20
12.909645
42
0.881477
0
VERTEX
8
1
10
22.761612
20
12.868271
42
-0.023327
0
VERTEX
8
1
10
22.903366
20
12.670776
0
VERTEX
8
1
10
22.905273
20
12.661316
42
-0.055627
0
VERTEX
8
1
10
22.773590
20
12.398819
42
-0.036834
0
VERTEX
8
1
10
22.626923
20
12.258820
0
VERTEX
8
1
10
22.627319
20
12.284561
0
VERTEX
8
1
10
22.695770
20
12.710060
42
0.066698
0
VERTEX
8
1
10
22.687164
20
12.992516
42
0.937109
0
VERTEX
8
1
10
22.627075
20
12.975594
42
-0.055939
0
VERTEX
8
1
10
22.635010
20
12.727531
42
0.006205
0
VERTEX
8
1
10
22.548523
20
12.170792
42
0.566245
0
SEQEND
0
POLYLINE
8
1
66
1
70
1
0
VERTEX
8
1
10
22.445435
20
11.542519
42
-0.142902
0
VERTEX
8
1
10
22.405075
20
11.448410
42
0.830821
0
VERTEX
8
1
10
22.454559
20
11.411758
42
0.170630
0
VERTEX
8
1
10
22.505173
20
11.539360
42
0.740990
0
SEQEND
0
POLYLINE
8
1
66
1
70
1
0
VERTEX
8
1
10
22.153015
20
14.554375
42
0.089215
0
VERTEX
8
1
10
22.086258
20
14.667084
0
VERTEX
8
1
10
22.069275
20
14.678566
42
-0.055676
0
VERTEX
8
1
10
21.933945
20
14.594696
0
VERTEX
8
1
10
21.856033
20
14.581100
0
VERTEX
8
1
10
21.870544
20
14.557770
0
VERTEX
8
1
10
21.881424
20
14.548027
42
-0.028324
0
VERTEX
8
1
10
22.151505
20
14.318062
0
VERTEX
8
1
10
22.168274
20
14.310738
42
0.116305
0
VERTEX
8
1
10
22.217300
20
14.337929
42
0.045475
0
SEQEND
0
POLYLINE
8
1
66
1
70
1
0
VERTEX
8
1
10
21.824020
20
14.997711
42
0.196020
0
VERTEX
8
1
10
21.646042
20
14.999107
0
VERTEX
8
1
10
21.716217
20
14.812637
42
0.202049
0
VERTEX
8
1
10
21.875656
20
14.834801
42
0.035446
0
VERTEX
8
1
10
21.949127
20
14.877647
42
0.161723
0
SEQEND
0
POLYLINE
8
1
66
1
70
1
0
VERTEX
8
1
10
21.015656
20
14.874138
0
VERTEX
8
1
10
21.452271
20
14.704483
0
VERTEX
8
1
10
21.465363
20
14.698051
0
VERTEX
8
1
10
21.474991
20
14.685867
42
-0.056745
0
VERTEX
8
1
10
21.631363
20
14.393166
42
0.117361
0
VERTEX
8
1
10
21.682281
20
14.306046
42
-0.013085
0
VERTEX
8
1
10
21.892303
20
14.039482
0
VERTEX
8
1
10
21.899948
20
14.025177
42
0.054779
0
VERTEX
8
1
10
21.948990
20
13.901466
42
0.015377
0
VERTEX
8
1
10
22.201126
20
13.434845
0
VERTEX
8
1
10
22.187698
20
13.423065
42
0.066902
0
VERTEX
8
1
10
21.867645
20
13.261246
0
VERTEX
8
1
10
21.848145
20
13.244667
0
VERTEX
8
1
10
21.829803
20
13.226830
42
0.623305
0
VERTEX
8
1
10
21.859039
20
13.144325
42
0.082519
0
VERTEX
8
1
10
21.999680
20
13.137787
42
0.017913
0
VERTEX
8
1
10
22.296143
20
13.172516
0
VERTEX
8
1
10
22.332870
20
13.002831
0
VERTEX
8
1
10
22.332718
20
12.999481
42
0.014808
0
VERTEX
8
1
10
22.049393
20
12.346054
42
0.028752
0
VERTEX
8
1
10
22.016983
20
12.238594
42
0.763848
0
VERTEX
8
1
10
22.078613
20
12.196762
42
0.074732
0
VERTEX
8
1
10
22.145782
20
12.255737
42
0.015429
0
VERTEX
8
1
10
22.346832
20
12.485359
0
VERTEX
8
1
10
22.346268
20
12.476128
42
-0.005742
0
VERTEX
8
1
10
22.228424
20
12.074318
42
-0.260255
0
VERTEX
8
1
10
22.190018
20
12.048759
42
-0.079530
0
VERTEX
8
1
10
22.091690
20
12.046738
42
0.015751
0
VERTEX
8
1
10
21.699677
20
12.082817
42
0.596104
0
VERTEX
8
1
10
21.665939
20
12.007614
42
0.084153
0
VERTEX
8
1
10
21.724258
20
11.938293
0
VERTEX
8
1
10
21.727539
20
11.920731
0
VERTEX
8
1
10
20.830307
20
11.601547
0
VERTEX
8
1
10
20.797211
20
11.585373
0
VERTEX
8
1
10
20.760651
20
11.558197
42
0.062318
0
VERTEX
8
1
10
20.497925
20
11.233833
42
0.014127
0
VERTEX
8
1
10
20.342880
20
10.989708
0
VERTEX
8
1
10
20.319183
20
11.006157
42
0.016867
0
VERTEX
8
1
10
19.911774
20
11.880524
42
0.063387
0
VERTEX
8
1
10
19.793457
20
12.067490
42
0.656099
0
VERTEX
8
1
10
19.724991
20
12.041527
42
0.073317
0
VERTEX
8
1
10
19.739868
20
11.873138
42
0.020509
0
VERTEX
8
1
10
19.841751
20
11.400070
42
0.006831
0
VERTEX
8
1
10
20.031281
20
10.645149
0
VERTEX
8
1
10
19.953766
20
10.656380
0
VERTEX
8
1
10
19.384033
20
11.152344
0
VERTEX
8
1
10
18.312103
20
11.919571
0
VERTEX
8
1
10
18.114838
20
12.123116
42
0.950859
0
VERTEX
8
1
10
18.075500
20
12.074554
0
VERTEX
8
1
10
18.275238
20
11.868523
0
VERTEX
8
1
10
19.350571
20
11.098831
0
VERTEX
8
1
10
19.924271
20
10.599854
42
0.123532
0
VERTEX
8
1
10
19.943314
20
10.594742
0
VERTEX
8
1
10
20.074112
20
10.576180
42
0.477518
0
VERTEX
8
1
10
20.104095
20
10.614449
42
-0.016634
0
VERTEX
8
1
10
19.806335
20
11.855621
0
VERTEX
8
1
10
19.792923
20
11.933601
0
VERTEX
8
1
10
19.792328
20
11.966255
42
-0.025108
0
VERTEX
8
1
10
20.112823
20
11.316910
42
-0.004551
0
VERTEX
8
1
10
20.302521
20
10.887970
42
0.620239
0
VERTEX
8
1
10
20.359039
20
10.894073
42
-0.036325
0
VERTEX
8
1
10
20.714478
20
11.421753
42
-0.094187
0
VERTEX
8
1
10
20.842697
20
11.539375
0
VERTEX
8
1
10
21.817261
20
11.886993
42
0.587213
0
VERTEX
8
1
10
21.814819
20
11.942955
42
-0.040503
0
VERTEX
8
1
10
21.735718
20
12.016808
0
VERTEX
8
1
10
21.742630
20
12.019066
0
VERTEX
8
1
10
22.115585
20
11.981445
42
0.151878
0
VERTEX
8
1
10
22.253265
20
12.008759
42
0.182283
0
VERTEX
8
1
10
22.292130
20
12.068024
42
0.004513
0
VERTEX
8
1
10
22.452591
20
12.622551
42
0.746538
0
VERTEX
8
1
10
22.397980
20
12.647202
42
-0.018739
0
VERTEX
8
1
10
22.109238
20
12.307716
0
VERTEX
8
1
10
22.100433
20
12.304131
0
VERTEX
8
1
10
22.113983
20
12.340355
42
-0.009599
0
VERTEX
8
1
10
22.397217
20
12.995186
42
0.107574
0
VERTEX
8
1
10
22.394867
20
13.011833
0
VERTEX
8
1
10
22.349533
20
13.219780
42
0.357348
0
VERTEX
8
1
10
22.315445
20
13.239723
42
-0.049488
0
VERTEX
8
1
10
21.899612
20
13.199356
0
VERTEX
8
1
10
21.906815
20
13.212090
0
VERTEX
8
1
10
21.938339
20
13.234352
42
-0.056857
0
VERTEX
8
1
10
22.265854
20
13.384636
42
0.403187
0
VERTEX
8
1
10
22.277954
20
13.426231
42
-0.017741
0
VERTEX
8
1
10
21.980286
20
13.980560
0
VERTEX
8
1
10
21.970657
20
14.003128
42
0.142949
0
VERTEX
8
1
10
21.938904
20
14.080544
42
0.023314
0
VERTEX
8
1
10
21.781937
20
14.280975
42
-0.007467
0
VERTEX
8
1
10
21.698700
20
14.388939
42
0.048979
0
VERTEX
8
1
10
21.627991
20
14.549843
42
0.036355
0
VERTEX
8
1
10
21.516647
20
14.733429
42
0.190725
0
VERTEX
8
1
10
21.481216
20
14.760361
0
VERTEX
8
1
10
21.028488
20
14.935776
42
0.995980
0
SEQEND
0
POLYLINE
8
1
66
1
70
1
0
VERTEX
8
1
10
21.880493
20
10.684174
42
-0.025637
0
VERTEX
8
1
10
21.169006
20
10.333282
42
-0.026948
0
VERTEX
8
1
10
21.011826
20
10.279236
42
0.802272
0
VERTEX
8
1
10
21.036575
20
10.223465
42
0.049499
0
VERTEX
8
1
10
21.308792
20
10.324768
42
0.019930
0
VERTEX
8
1
10
21.967087
20
10.660660
42
0.548554
0
VERTEX
8
1
10
21.960327
20
10.712982
42
0.003757
0
VERTEX
8
1
10
21.705551
20
10.845207
42
0.289448
0
VERTEX
8
1
10
21.672989
20
10.834686
42
-0.030387
0
VERTEX
8
1
10
21.385574
20
10.584839
0
VERTEX
8
1
10
21.358292
20
10.568405
42
-0.012664
0
VERTEX
8
1
10
20.822601
20
10.312584
42
0.843802
0
VERTEX
8
1
10
20.854141
20
10.259651
42
0.021882
0
VERTEX
8
1
10
21.421661
20
10.533974
0
VERTEX
8
1
10
21.445908
20
10.550591
42
0.022256
0
VERTEX
8
1
10
21.702881
20
10.776955
0
SEQEND
0
POLYLINE
8
1
66
1
70
1
0
VERTEX
8
1
10
21.514664
20
11.517174
42
-0.044155
0
VERTEX
8
1
10
21.939667
20
11.589684
0
VERTEX
8
1
10
21.917068
20
11.552223
42
-0.017994
0
VERTEX
8
1
10
21.409515
20
11.004524
0
VERTEX
8
1
10
21.388565
20
10.986221
42
-0.104472
0
VERTEX
8
1
10
21.277710
20
10.960938
42
-0.001521
0
VERTEX
8
1
10
20.832001
20
10.928322
42
0.246460
0
VERTEX
8
1
10
20.678207
20
10.845200
42
0.121147
0
VERTEX
8
1
10
20.590378
20
10.629776
42
0.786701
0
VERTEX
8
1
10
20.651138
20
10.628372
42
-0.124135
0
VERTEX
8
1
10
20.745346
20
10.828430
42
-0.146737
0
VERTEX
8
1
10
20.807877
20
10.862389
42
-0.012868
0
VERTEX
8
1
10
21.203979
20
10.891190
42
0.053339
0
VERTEX
8
1
10
21.386185
20
10.916710
42
0.154792
0
VERTEX
8
1
10
21.448792
20
10.956390
0
VERTEX
8
1
10
21.488708
20
10.994171
42
0.015293
0
VERTEX
8
1
10
22.051178
20
11.611061
42
0.642694
0
VERTEX
8
1
10
22.017395
20
11.657669
42
0.075416
0
VERTEX
8
1
10
21.371933
20
11.536041
0
VERTEX
8
1
10
21.326218
20
11.517624
0
VERTEX
8
1
10
21.255646
20
11.482925
42
0.056183
0
VERTEX
8
1
10
20.884384
20
11.210228
42
0.107668
0
VERTEX
8
1
10
20.811707
20
11.102051
42
0.845034
0
VERTEX
8
1
10
20.872635
20
11.090446
42
-0.099313
0
VERTEX
8
1
10
20.996567
20
11.227455
42
-0.034434
0
VERTEX
8
1
10
21.289886
20
11.430367
42
-0.055571
0
SEQEND
0
POLYLINE
8
1
66
1
70
1
0
VERTEX
8
1
10
20.798309
20
10.650414
42
0.302908
0
VERTEX
8
1
10
20.792358
20
10.582443
42
0.353890
0
VERTEX
8
1
10
20.850739
20
10.574219
42
0.039931
0
VERTEX
8
1
10
20.993134
20
10.641365
0
VERTEX
8
1
10
21.145691
20
10.723618
42
1.246461
0
VERTEX
8
1
10
21.115906
20
10.778648
42
-0.008402
0
VERTEX
8
1
10
20.879150
20
10.654327
42
-0.013096
0
VERTEX
8
1
10
20.932434
20
10.710655
42
0.861228
0
VERTEX
8
1
10
20.884125
20
10.749222
42
0.070455
0
SEQEND
0
POLYLINE
8
1
66
1
70
1
0
VERTEX
8
1
10
22.019150
20
10.861412
0
VERTEX
8
1
10
22.025528
20
10.878654
42
0.008407
0
VERTEX
8
1
10
22.124008
20
11.223351
42
0.729294
0
VERTEX
8
1
10
22.069321
20
11.246834
0
VERTEX
8
1
10
21.948044
20
11.110458
42
0.949233
0
VERTEX
8
1
10
22.000000
20
11.075615
0
VERTEX
8
1
10
22.026749
20
11.105545
0
VERTEX
8
1
10
21.970734
20
10.912529
0
VERTEX
8
1
10
21.964172
20
10.904831
42
-0.052447
0
VERTEX
8
1
10
21.894440
20
10.999565
42
0.814570
0
VERTEX
8
1
10
21.843582
20
10.965508
42
0.091052
0
VERTEX
8
1
10
21.938293
20
10.845909
42
0.462252
0
VERTEX
8
1
10
22.014862
20
10.853226
0
SEQEND
0
POLYLINE
8
1
66
1
70
1
0
VERTEX
8
1
10
19.697250
20
10.159340
42
0.191094
0
VERTEX
8
1
10
19.791382
20
10.154640
42
0.194952
0
VERTEX
8
1
10
19.882523
20
10.277916
0
VERTEX
8
1
10
19.880844
20
10.286613
42
0.062886
0
VERTEX
8
1
10
19.828125
20
10.350082
0
VERTEX
8
1
10
19.809280
20
10.359802
42
0.074585
0
VERTEX
8
1
10
19.583725
20
10.388153
42
0.834371
0
VERTEX
8
1
10
19.590942
20
10.327057
42
-0.054785
0
VERTEX
8
1
10
19.787582
20
10.302002
42
-0.075811
0
VERTEX
8
1
10
19.814987
20
10.269234
42
-0.108100
0
VERTEX
8
1
10
19.761261
20
10.209824
0
VERTEX
8
1
10
19.741058
20
10.210899
0
VERTEX
8
1
10
19.709686
20
10.220383
42
-0.049753
0
VERTEX
8
1
10
19.357468
20
10.420135
42
0.930435
0
VERTEX
8
1
10
19.326828
20
10.365852
42
0.046846
0
VERTEX
8
1
10
19.674149
20
10.167877
0
SEQEND
0
POLYLINE
8
1
66
1
70
1
0
VERTEX
8
1
10
19.512436
20
10.095222
0
VERTEX
8
1
10
19.437393
20
9.964981
42
0.930792
0
VERTEX
8
1
10
19.493668
20
9.938133
0
VERTEX
8
1
10
19.569351
20
10.068810
42
1.086780
0
SEQEND
0
POLYLINE
8
1
66
1
70
1
0
VERTEX
8
1
10
18.783524
20
11.139145
0
VERTEX
8
1
10
18.747467
20
11.100159
0
VERTEX
8
1
10
18.736160
20
11.099800
42
-0.093415
0
VERTEX
8
1
10
18.557556
20
11.156326
0
VERTEX
8
1
10
18.522980
20
11.172768
42
-0.102981
0
VERTEX
8
1
10
18.265244
20
11.364075
42
-0.088619
0
VERTEX
8
1
10
18.033508
20
11.770386
42
0.988561
0
VERTEX
8
1
10
17.978027
20
11.740776
42
0.094507
0
VERTEX
8
1
10
18.234146
20
11.304863
42
0.115207
0
VERTEX
8
1
10
18.596161
20
11.072319
42
0.135349
0
VERTEX
8
1
10
18.761383
20
11.038925
42
0.211183
0
VERTEX
8
1
10
18.796112
20
11.059715
0
VERTEX
8
1
10
18.856018
20
11.127266
42
0.371356
0
VERTEX
8
1
10
18.848541
20
11.167374
0
VERTEX
8
1
10
18.283524
20
11.627533
42
0.947508
0
VERTEX
8
1
10
18.246780
20
11.577095
0
SEQEND
0
POLYLINE
8
1
66
1
70
1
0
VERTEX
8
1
10
18.162292
20
11.059303
42
0.084619
0
VERTEX
8
1
10
18.752243
20
10.313560
42
0.059685
0
VERTEX
8
1
10
19.134949
20
10.047821
0
VERTEX
8
1
10
19.261703
20
9.989021
42
0.317992
0
VERTEX
8
1
10
19.297501
20
9.997574
42
0.115620
0
VERTEX
8
1
10
19.401535
20
10.174294
42
0.169809
0
VERTEX
8
1
10
19.393692
20
10.193504
42
0.020810
0
VERTEX
8
1
10
19.095886
20
10.484482
0
VERTEX
8
1
10
19.088074
20
10.488739
42
-0.056128
0
VERTEX
8
1
10
18.664978
20
10.678978
42
-0.005194
0
VERTEX
8
1
10
18.594772
20
10.728523
42
0.792412
0
VERTEX
8
1
10
18.564713
20
10.675636
42
0.072669
0
VERTEX
8
1
10
18.822235
20
10.525497
42
0.026460
0
VERTEX
8
1
10
19.062119
20
10.431473
0
VERTEX
8
1
10
19.069656
20
10.426613
42
-0.010557
0
VERTEX
8
1
10
19.328400
20
10.170799
0
VERTEX
8
1
10
19.330963
20
10.160255
42
-0.066057
0
VERTEX
8
1
10
19.267090
20
10.055779
0
VERTEX
8
1
10
19.145767
20
10.112732
0
VERTEX
8
1
10
19.015060
20
10.190498
0
VERTEX
8
1
10
18.893463
20
10.277496
42
-0.098424
0
VERTEX
8
1
10
18.214172
20
11.093491
42
0.895412
0
SEQEND
0
POLYLINE
8
1
66
1
70
1
0
VERTEX
8
1
10
19.092484
20
10.912964
42
-0.023463
0
VERTEX
8
1
10
19.148758
20
10.746552
42
0.203339
0
VERTEX
8
1
10
19.168884
20
10.732628
0
VERTEX
8
1
10
19.401459
20
10.680267
42
0.851753
0
VERTEX
8
1
10
19.413071
20
10.740868
0
VERTEX
8
1
10
19.201569
20
10.789940
42
0.026935
0
VERTEX
8
1
10
19.146729
20
10.941292
42
0.813984
0
SEQEND
0
POLYLINE
8
1
66
1
70
1
0
VERTEX
8
1
10
19.449310
20
13.880386
0
VERTEX
8
1
10
19.432846
20
13.855217
42
-0.095688
0
VERTEX
8
1
10
18.992966
20
13.528297
42
-0.091583
0
VERTEX
8
1
10
18.651154
20
13.440506
0
VERTEX
8
1
10
18.523209
20
13.442490
0
VERTEX
8
1
10
18.418274
20
13.458389
42
0.604932
0
VERTEX
8
1
10
18.383484
20
13.413391
0
VERTEX
8
1
10
18.394623
20
13.391273
42
0.158503
0
VERTEX
8
1
10
18.478912
20
13.338760
42
0.053624
0
VERTEX
8
1
10
18.783295
20
13.283791
0
VERTEX
8
1
10
19.052567
20
13.259438
42
1.178246
0
VERTEX
8
1
10
19.066147
20
13.320488
42
0.005296
0
VERTEX
8
1
10
18.755646
20
13.348991
42
-0.018328
0
VERTEX
8
1
10
18.580200
20
13.376350
42
0.147855
0
VERTEX
8
1
10
19.159607
20
13.546272
42
0.092511
0
VERTEX
8
1
10
19.553131
20
13.904106
42
0.573773
0
VERTEX
8
1
10
19.516998
20
13.944618
42
-0.030234
0
VERTEX
8
1
10
19.417831
20
13.943985
0
VERTEX
8
1
10
19.427582
20
13.954330
0
VERTEX
8
1
10
19.486786
20
13.987221
42
0.107917
0
VERTEX
8
1
10
19.832031
20
14.352989
42
0.829908
0
VERTEX
8
1
10
19.774429
20
14.374344
42
-0.074457
0
VERTEX
8
1
10
19.516220
20
14.084740
42
-0.106629
0
VERTEX
8
1
10
19.310623
20
13.978760
0
VERTEX
8
1
10
19.236923
20
13.971718
0
VERTEX
8
1
10
19.217438
20
13.972839
42
0.877858
0
VERTEX
8
1
10
19.210312
20
13.911285
42
0.057043
0
SEQEND
0
POLYLINE
8
1
66
1
70
1
0
VERTEX
8
1
10
18.417694
20
12.559387
42
-0.098687
0
VERTEX
8
1
10
18.249512
20
12.597618
42
0.839681
0
VERTEX
8
1
10
18.231522
20
12.538734
42
0.123701
0
VERTEX
8
1
10
18.472763
20
12.497253
42
0.079060
0
VERTEX
8
1
10
18.843704
20
12.566788
42
0.778929
0
VERTEX
8
1
10
18.826370
20
12.627884
42
-0.124171
0
VERTEX
8
1
10
18.583481
20
12.793198
0
VERTEX
8
1
10
18.602386
20
12.802162
42
0.096892
0
VERTEX
8
1
10
19.149551
20
12.795341
42
0.103001
0
VERTEX
8
1
10
19.867416
20
13.088326
42
0.707984
0
VERTEX
8
1
10
19.835556
20
13.138718
42
-0.146829
0
VERTEX
8
1
10
19.584824
20
13.165955
42
0.229167
0
VERTEX
8
1
10
20.026627
20
13.520767
42
0.913242
0
VERTEX
8
1
10
19.965469
20
13.534416
42
-0.159146
0
VERTEX
8
1
10
19.680984
20
13.262779
42
-0.084227
0
VERTEX
8
1
10
19.499237
20
13.221092
42
0.483328
0
VERTEX
8
1
10
19.483185
20
13.174858
42
0.198946
0
VERTEX
8
1
10
19.632187
20
13.082748
42
0.046893
0
VERTEX
8
1
10
19.709869
20
13.071579
0
VERTEX
8
1
10
19.699844
20
13.058311
42
-0.105457
0
VERTEX
8
1
10
18.986023
20
12.838028
42
-0.091078
0
VERTEX
8
1
10
18.518417
20
12.888237
42
0.585412
0
VERTEX
8
1
10
18.479370
20
12.850143
42
0.126727
0
VERTEX
8
1
10
18.570251
20
12.716553
42
0.081536
0
VERTEX
8
1
10
18.736389
20
12.598351
42
-0.071385
0
SEQEND
0
POLYLINE
8
1
66
1
70
1
0
VERTEX
8
1
10
19.786575
20
12.377563
0
VERTEX
8
1
10
19.770081
20
12.388435
0
VERTEX
8
1
10
19.831390
20
12.402382
0
VERTEX
8
1
10
19.887161
20
12.422318
42
0.214159
0
VERTEX
8
1
10
20.081955
20
12.627808
42
1.054628
0
VERTEX
8
1
10
20.019699
20
12.639801
42
-0.228302
0
VERTEX
8
1
10
19.837158
20
12.469994
42
-0.042466
0
VERTEX
8
1
10
19.689621
20
12.441566
42
0.418459
0
VERTEX
8
1
10
19.676453
20
12.399094
42
0.166955
0
VERTEX
8
1
10
19.805527
20
12.298447
0
VERTEX
8
1
10
19.828995
20
12.289085
0
VERTEX
8
1
10
19.852921
20
12.280983
0
VERTEX
8
1
10
19.830139
20
12.267166
42
-0.093393
0
VERTEX
8
1
10
19.345139
20
12.167931
42
-0.091216
0
VERTEX
8
1
10
19.053131
20
12.222786
42
0.529365
0
VERTEX
8
1
10
19.020828
20
12.179260
0
VERTEX
8
1
10
19.026962
20
12.153801
0
VERTEX
8
1
10
19.038651
20
12.126450
42
0.144258
0
VERTEX
8
1
10
19.275375
20
11.908394
0
VERTEX
8
1
10
19.279541
20
11.893883
42
-0.104429
0
VERTEX
8
1
10
18.843414
20
11.903397
42
0.857036
0
VERTEX
8
1
10
18.832962
20
11.842514
42
0.104116
0
VERTEX
8
1
10
19.287308
20
11.831238
42
0.074916
0
VERTEX
8
1
10
19.406799
20
11.878052
42
0.639659
0
VERTEX
8
1
10
19.386124
20
11.931816
42
-0.156632
0
VERTEX
8
1
10
19.113998
20
12.122963
0
VERTEX
8
1
10
19.116516
20
12.136482
0
VERTEX
8
1
10
19.228058
20
12.113319
0
VERTEX
8
1
10
19.338776
20
12.104836
42
0.120464
0
VERTEX
8
1
10
19.975464
20
12.266090
42
0.627894
0
VERTEX
8
1
10
19.958435
20
12.319756
42
-0.087859
0
SEQEND
0
POLYLINE
8
1
66
1
70
1
0
VERTEX
8
1
10
20.789825
20
14.157768
42
0.933662
0
VERTEX
8
1
10
20.728104
20
14.145599
42
0.169195
0
VERTEX
8
1
10
20.796158
20
13.955101
0
VERTEX
8
1
10
20.842880
20
13.903969
0
VERTEX
8
1
10
20.906952
20
13.854347
0
VERTEX
8
1
10
20.991135
20
13.808746
0
VERTEX
8
1
10
21.098175
20
13.769676
0
VERTEX
8
1
10
21.230789
20
13.739662
42
-0.263397
0
VERTEX
8
1
10
21.058914
20
13.721886
42
0.757632
0
VERTEX
8
1
10
21.028931
20
13.668694
0
VERTEX
8
1
10
21.040939
20
13.651726
42
0.115018
0
VERTEX
8
1
10
21.608719
20
13.262665
0
VERTEX
8
1
10
21.644714
20
13.241859
42
-0.074469
0
VERTEX
8
1
10
21.433838
20
13.118240
42
0.857393
0
VERTEX
8
1
10
21.466049
20
13.065536
42
0.090832
0
VERTEX
8
1
10
21.699310
20
13.207863
42
0.063491
0
VERTEX
8
1
10
21.733719
20
13.251350
42
0.412237
0
VERTEX
8
1
10
21.713898
20
13.290688
42
-0.107150
0
VERTEX
8
1
10
21.152496
20
13.624138
0
VERTEX
8
1
10
21.137314
20
13.644318
42
0.224568
0
VERTEX
8
1
10
21.331299
20
13.752472
42
0.460583
0
VERTEX
8
1
10
21.305023
20
13.792061
0
VERTEX
8
1
10
21.171066
20
13.815231
0
VERTEX
8
1
10
21.062592
20
13.847191
0
VERTEX
8
1
10
20.976913
20
13.885628
42
-0.125615
0
VERTEX
8
1
10
20.829941
20
14.016579
42
-0.142196
0
SEQEND
0
POLYLINE
8
1
66
1
70
1
0
VERTEX
8
1
10
21.639084
20
12.664619
0
VERTEX
8
1
10
21.638550
20
12.675392
42
0.183077
0
VERTEX
8
1
10
21.776917
20
12.844780
42
0.478453
0
VERTEX
8
1
10
21.738647
20
12.874832
0
VERTEX
8
1
10
21.720917
20
12.869270
0
VERTEX
8
1
10
21.613312
20
12.846878
0
VERTEX
8
1
10
21.513016
20
12.845009
0
VERTEX
8
1
10
21.420792
20
12.859619
42
-0.148666
0
VERTEX
8
1
10
21.055847
20
13.091789
42
0.973115
0
VERTEX
8
1
10
21.017548
20
13.041649
42
0.140019
0
VERTEX
8
1
10
21.400345
20
12.801872
0
VERTEX
8
1
10
21.496140
20
12.784622
0
VERTEX
8
1
10
21.599854
20
12.783195
0
VERTEX
8
1
10
21.676865
20
12.790115
42
-0.092487
0
VERTEX
8
1
10
21.559525
20
12.702141
42
0.489863
0
VERTEX
8
1
10
21.560684
20
12.651649
42
0.182346
0
VERTEX
8
1
10
21.960266
20
12.466530
42
0.875760
0
VERTEX
8
1
10
21.955963
20
12.528343
42
-0.156414
0
SEQEND
0
POLYLINE
8
1
66
1
70
1
0
VERTEX
8
1
10
21.411591
20
12.248985
42
-0.049924
0
VERTEX
8
1
10
21.323608
20
12.188408
42
0.360004
0
VERTEX
8
1
10
21.315536
20
12.143333
42
0.214073
0
VERTEX
8
1
10
21.422333
20
12.020523
42
0.089098
0
VERTEX
8
1
10
21.512451
20
11.993805
42
0.866109
0
VERTEX
8
1
10
21.515579
20
12.055611
42
-0.261036
0
VERTEX
8
1
10
21.380478
20
12.149246
42
0.099445
0
VERTEX
8
1
10
21.525879
20
12.280769
42
0.527693
0
VERTEX
8
1
10
21.492203
20
12.319878
42
-0.203733
0
VERTEX
8
1
10
21.144104
20
12.401917
42
0.816469
0
VERTEX
8
1
10
21.114105
20
12.348534
42
0.161936
0
SEQEND
0
POLYLINE
8
1
66
1
70
1
0
VERTEX
8
1
10
20.778030
20
14.489517
42
0.114000
0
VERTEX
8
1
10
20.930893
20
14.357285
42
0.098334
0
VERTEX
8
1
10
21.148560
20
14.288322
0
VERTEX
8
1
10
21.241791
20
14.282921
42
-0.036000
0
VERTEX
8
1
10
21.150330
20
14.208946
42
0.391908
0
VERTEX
8
1
10
21.157394
20
14.166000
42
0.169915
0
VERTEX
8
1
10
21.468765
20
13.953278
42
0.067994
0
VERTEX
8
1
10
21.766388
20
13.911102
42
0.825880
0
VERTEX
8
1
10
21.764572
20
13.972443
42
-0.091832
0
VERTEX
8
1
10
21.405258
20
14.043678
42
-0.119279
0
VERTEX
8
1
10
21.229538
20
14.176559
0
VERTEX
8
1
10
21.229736
20
14.190369
42
0.143949
0
VERTEX
8
1
10
21.330627
20
14.305237
42
0.535351
0
VERTEX
8
1
10
21.299927
20
14.347816
42
-0.123545
0
VERTEX
8
1
10
21.001984
20
14.391739
42
-0.134662
0
VERTEX
8
1
10
20.818802
20
14.536858
42
0.888826
0
SEQEND
0
POLYLINE
8
1
66
1
70
1
0
VERTEX
8
1
10
20.625214
20
14.990173
0
VERTEX
8
1
10
20.619476
20
14.988800
0
VERTEX
8
1
10
20.632645
20
14.952950
42
0.278921
0
VERTEX
8
1
10
20.669083
20
14.931007
42
0.066377
0
VERTEX
8
1
10
20.798309
20
14.941284
42
0.009101
0
SEQEND
0
POLYLINE
8
1
66
1
70
1
0
VERTEX
8
1
10
19.419342
20
15.169823
42
-0.041934
0
VERTEX
8
1
10
19.674362
20
15.333183
0
VERTEX
8
1
10
19.802475
20
15.347061
42
-0.134091
0
VERTEX
8
1
10
19.987503
20
15.320274
42
0.009894
0
VERTEX
8
1
10
20.100037
20
15.288383
42
-0.062982
0
VERTEX
8
1
10
19.952179
20
15.331680
0
VERTEX
8
1
10
19.905426
20
15.343071
0
VERTEX
8
1
10
19.907471
20
15.340775
42
0.121637
0
VERTEX
8
1
10
20.167618
20
15.251648
42
-0.054406
0
VERTEX
8
1
10
19.983109
20
15.213402
0
VERTEX
8
1
10
19.947006
20
15.215141
42
0.031592
0
VERTEX
8
1
10
19.584747
20
15.184242
42
0.820541
0
VERTEX
8
1
10
19.603317
20
15.125801
42
-0.034818
0
VERTEX
8
1
10
19.994339
20
15.151924
0
VERTEX
8
1
10
20.019501
20
15.153961
42
0.041277
0
VERTEX
8
1
10
20.365997
20
15.244301
42
0.754966
0
VERTEX
8
1
10
20.349426
20
15.302834
42
-0.025375
0
VERTEX
8
1
10
19.996521
20
15.382637
42
0.138056
0
VERTEX
8
1
10
19.818024
20
15.410080
42
0.013199
0
VERTEX
8
1
10
19.669281
20
15.395752
42
0.079957
0
VERTEX
8
1
10
19.534531
20
15.324997
42
0.018822
0
VERTEX
8
1
10
19.374084
20
15.213646
42
0.992279
0
SEQEND
0
POLYLINE
8
1
66
1
70
1
0
VERTEX
8
1
10
18.209671
20
13.782867
0
VERTEX
8
1
10
18.141266
20
13.717644
42
0.099476
0
VERTEX
8
1
10
18.042099
20
13.577469
0
VERTEX
8
1
10
17.844360
20
12.973663
42
0.087099
0
VERTEX
8
1
10
17.845245
20
12.957191
0
VERTEX
8
1
10
17.890182
20
12.563324
0
VERTEX
8
1
10
17.951981
20
12.341827
42
0.912348
0
VERTEX
8
1
10
18.009476
20
12.365700
0
VERTEX
8
1
10
17.951050
20
12.577606
0
VERTEX
8
1
10
17.907349
20
12.964302
0
VERTEX
8
1
10
17.911545
20
12.979622
0
VERTEX
8
1
10
18.100433
20
13.555069
42
-0.116057
0
VERTEX
8
1
10
18.211395
20
13.698425
42
-0.020485
0
VERTEX
8
1
10
18.334991
20
13.807961
0
VERTEX
8
1
10
18.555054
20
13.990837
0
VERTEX
8
1
10
18.560547
20
13.987885
0
VERTEX
8
1
10
18.673752
20
13.738533
42
0.714260
0
VERTEX
8
1
10
18.731079
20
13.755386
0
VERTEX
8
1
10
18.821243
20
14.195709
0
VERTEX
8
1
10
19.048462
20
14.441368
42
0.755802
0
VERTEX
8
1
10
19.011139
20
14.489464
0
VERTEX
8
1
10
18.791306
20
14.443031
0
VERTEX
8
1
10
18.790802
20
14.445152
0
VERTEX
8
1
10
18.853317
20
14.702179
0
VERTEX
8
1
10
19.109390
20
14.847580
42
-0.048842
0
VERTEX
8
1
10
19.237656
20
14.873100
42
0.021439
0
VERTEX
8
1
10
19.832291
20
14.893196
0
VERTEX
8
1
10
19.879990
20
14.899834
42
0.012852
0
VERTEX
8
1
10
20.271500
20
14.989174
42
0.894311
0
VERTEX
8
1
10
20.244492
20
15.045303
42
-0.008030
0
VERTEX
8
1
10
19.868896
20
14.961205
0
VERTEX
8
1
10
19.822571
20
14.954872
42
-0.021019
0
VERTEX
8
1
10
19.230820
20
14.935303
42
0.058394
0
VERTEX
8
1
10
19.084503
20
14.905182
0
VERTEX
8
1
10
18.805344
20
14.746071
42
0.197426
0
VERTEX
8
1
10
18.792877
20
14.718781
0
VERTEX
8
1
10
18.716995
20
14.404068
42
0.532696
0
VERTEX
8
1
10
18.758545
20
14.372246
0
VERTEX
8
1
10
18.932571
20
14.408997
0
VERTEX
8
1
10
18.765060
20
14.225998
0
VERTEX
8
1
10
18.760498
20
14.212135
0
VERTEX
8
1
10
18.687943
20
13.857681
0
VERTEX
8
1
10
18.595764
20
14.060768
42
0.444376
0
VERTEX
8
1
10
18.549896
20
14.067566
42
0.005421
0
SEQEND
0
POLYLINE
8
1
66
1
70
1
0
VERTEX
8
1
10
17.801514
20
13.629082
0
VERTEX
8
1
10
17.793854
20
13.623039
42
-0.029776
0
VERTEX
8
1
10
17.818451
20
13.873360
0
VERTEX
8
1
10
17.822266
20
13.881882
42
-0.009469
0
VERTEX
8
1
10
17.991455
20
14.150230
42
0.899022
0
VERTEX
8
1
10
17.931915
20
14.169716
42
0.023113
0
VERTEX
8
1
10
17.760071
20
13.895119
0
VERTEX
8
1
10
17.754974
20
13.877937
0
VERTEX
8
1
10
17.750336
20
13.847649
42
0.018090
0
VERTEX
8
1
10
17.722992
20
13.452591
42
0.717415
0
VERTEX
8
1
10
17.782608
20
13.452469
42
-0.014047
0
VERTEX
8
1
10
18.004486
20
13.875992
42
0.017839
0
VERTEX
8
1
10
18.068085
20
14.007767
0
VERTEX
8
1
10
18.071640
20
14.018936
0
VERTEX
8
1
10
18.074326
20
14.030350
42
1.346431
0
VERTEX
8
1
10
18.012619
20
14.039680
0
VERTEX
8
1
10
18.005936
20
14.020393
42
-0.030813
0
VERTEX
8
1
10
17.865265
20
13.753380
0
SEQEND
0
POLYLINE
8
1
66
1
70
1
0
VERTEX
8
1
10
16.850555
20
13.974922
0
VERTEX
8
1
10
16.888794
20
13.978149
42
0.163980
0
VERTEX
8
1
10
17.299271
20
14.154533
0
VERTEX
8
1
10
17.310486
20
14.160927
42
0.773980
0
VERTEX
8
1
10
17.317307
20
14.223076
42
-0.055817
0
VERTEX
8
1
10
17.192429
20
14.279755
0
VERTEX
8
1
10
17.224731
20
14.280663
42
0.136241
0
VERTEX
8
1
10
17.448105
20
14.328171
42
0.271716
0
VERTEX
8
1
10
17.525116
20
14.449654
42
0.928858
0
VERTEX
8
1
10
17.463013
20
14.442596
0
VERTEX
8
1
10
17.460068
20
14.431366
42
-0.233585
0
VERTEX
8
1
10
17.371445
20
14.361343
42
-0.100107
0
VERTEX
8
1
10
17.120300
20
14.349823
42
0.506522
0
VERTEX
8
1
10
17.088989
20
14.308685
0
VERTEX
8
1
10
17.095627
20
14.288559
42
0.140183
0
VERTEX
8
1
10
17.194870
20
14.206108
0
VERTEX
8
1
10
17.237411
20
14.186028
42
-0.149093
0
VERTEX
8
1
10
16.922409
20
14.045357
0
VERTEX
8
1
10
16.846527
20
14.037292
42
0.997678
0
SEQEND
0
POLYLINE
8
1
66
1
70
1
0
VERTEX
8
1
10
16.370850
20
17.923355
0
VERTEX
8
1
10
16.376770
20
17.924591
0
VERTEX
8
1
10
16.754166
20
17.706604
42
1.000383
0
VERTEX
8
1
10
16.778397
20
17.764496
0
VERTEX
8
1
10
16.386703
20
17.990402
42
0.216724
0
VERTEX
8
1
10
16.360519
20
17.987946
0
VERTEX
8
1
10
15.873779
20
17.747604
42
0.939965
0
VERTEX
8
1
10
15.904755
20
17.693451
0
SEQEND
0
POLYLINE
8
1
66
1
70
1
0
VERTEX
8
1
10
16.457245
20
17.783813
42
0.947117
0
VERTEX
8
1
10
16.394928
20
17.780396
0
VERTEX
8
1
10
16.395370
20
16.897537
42
0.946886
0
VERTEX
8
1
10
16.457687
20
16.900955
0
SEQEND
0
POLYLINE
8
1
66
1
70
1
0
VERTEX
8
1
10
13.464264
20
16.123955
0
VERTEX
8
1
10
13.226334
20
16.588371
0
VERTEX
8
1
10
13.439880
20
16.972878
42
0.911955
0
VERTEX
8
1
10
13.382965
20
16.998085
0
VERTEX
8
1
10
13.161606
20
16.601013
42
0.259797
0
VERTEX
8
1
10
13.166824
20
16.567421
0
VERTEX
8
1
10
13.411697
20
16.090019
42
0.969351
0
SEQEND
0
POLYLINE
8
1
66
1
70
1
0
VERTEX
8
1
10
20.203873
20
16.717049
42
0.915698
0
VERTEX
8
1
10
20.197891
20
16.779037
0
VERTEX
8
1
10
13.363358
20
16.672478
42
0.898614
0
VERTEX
8
1
10
13.370895
20
16.610771
0
SEQEND
0
POLYLINE
8
1
66
1
70
1
0
VERTEX
8
1
10
16.457214
20
16.462654
42
0.963394
0
VERTEX
8
1
10
16.395340
20
16.452347
0
VERTEX
8
1
10
16.396408
20
14.090416
42
0.923479
0
VERTEX
8
1
10
16.458542
20
14.095383
0
SEQEND
0
POLYLINE
8
1
66
1
70
1
0
VERTEX
8
1
10
15.793243
20
12.744591
42
0.100867
0
VERTEX
8
1
10
16.176926
20
12.678192
42
0.181809
0
VERTEX
8
1
10
16.394348
20
12.765656
0
VERTEX
8
1
10
16.403702
20
12.776154
42
0.517241
0
VERTEX
8
1
10
16.399918
20
12.830208
42
-0.014532
0
VERTEX
8
1
10
16.255707
20
12.942764
0
VERTEX
8
1
10
16.372238
20
12.957718
0
VERTEX
8
1
10
16.443939
20
12.983841
42
0.151996
0
VERTEX
8
1
10
16.747482
20
13.283340
42
1.016383
0
VERTEX
8
1
10
16.687180
20
13.302200
42
-0.147578
0
VERTEX
8
1
10
16.423798
20
13.041847
0
VERTEX
8
1
10
16.353683
20
13.016685
0
VERTEX
8
1
10
16.276001
20
13.005386
42
-0.054477
0
VERTEX
8
1
10
16.150360
20
13.019012
42
0.646490
0
VERTEX
8
1
10
16.131607
20
12.965202
42
0.020369
0
VERTEX
8
1
10
16.335968
20
12.799927
42
-0.149870
0
VERTEX
8
1
10
16.207321
20
12.745094
42
-0.091824
0
VERTEX
8
1
10
15.980728
20
12.755707
42
-0.034784
0
VERTEX
8
1
10
15.807632
20
12.805511
42
0.973071
0
SEQEND
0
POLYLINE
8
1
66
1
70
1
0
VERTEX
8
1
10
15.985352
20
12.388489
42
0.159609
0
VERTEX
8
1
10
16.201035
20
12.392357
42
0.132881
0
VERTEX
8
1
10
16.255402
20
12.428185
42
0.807933
0
VERTEX
8
1
10
16.206894
20
12.465424
42
-0.138074
0
VERTEX
8
1
10
16.113129
20
12.436211
42
-0.109968
0
VERTEX
8
1
10
15.935547
20
12.472420
42
0.596986
0
VERTEX
8
1
10
15.894989
20
12.403313
42
0.130726
0
VERTEX
8
1
10
15.999481
20
12.299706
42
0.784742
0
VERTEX
8
1
10
16.024002
20
12.355247
0
SEQEND
0
POLYLINE
8
1
66
1
70
1
0
VERTEX
8
1
10
15.120636
20
11.325294
42
0.141868
0
VERTEX
8
1
10
15.553650
20
11.303818
42
0.849394
0
VERTEX
8
1
10
15.528687
20
11.362007
42
-0.349986
0
VERTEX
8
1
10
15.497757
20
11.386177
0
VERTEX
8
1
10
15.490311
20
11.408234
0
VERTEX
8
1
10
15.505463
20
11.414177
0
VERTEX
8
1
10
15.576126
20
11.403244
42
0.186223
0
VERTEX
8
1
10
15.926697
20
11.522743
42
0.931640
0
VERTEX
8
1
10
15.882584
20
11.567017
42
-0.182926
0
VERTEX
8
1
10
15.572296
20
11.466743
42
-0.078761
0
VERTEX
8
1
10
15.444687
20
11.500259
42
0.598077
0
VERTEX
8
1
10
15.411743
20
11.455673
42
0.021843
0
VERTEX
8
1
10
15.444626
20
11.352768
0
VERTEX
8
1
10
15.432800
20
11.347122
42
-0.143921
0
VERTEX
8
1
10
14.964127
20
11.460533
42
-0.002124
0
VERTEX
8
1
10
14.864090
20
11.518272
42
0.843705
0
VERTEX
8
1
10
14.839813
20
11.461655
42
0.064948
0
SEQEND
0
POLYLINE
8
1
66
1
70
1
0
VERTEX
8
1
10
16.176193
20
11.196968
42
0.046887
0
VERTEX
8
1
10
16.381073
20
11.180618
0
VERTEX
8
1
10
16.362305
20
11.166824
42
-0.205364
0
VERTEX
8
1
10
15.220886
20
11.139359
42
0.839636
0
VERTEX
8
1
10
15.204514
20
11.080025
42
0.234330
0
VERTEX
8
1
10
16.532074
20
11.186661
42
1.093182
0
VERTEX
8
1
10
16.504669
20
11.248024
42
-0.071672
0
VERTEX
8
1
10
16.158401
20
11.263893
0
VERTEX
8
1
10
16.173569
20
11.273125
0
VERTEX
8
1
10
16.278885
20
11.300400
0
VERTEX
8
1
10
16.371780
20
11.336075
0
VERTEX
8
1
10
16.452957
20
11.378334
42
0.178097
0
VERTEX
8
1
10
16.775757
20
11.766479
42
1.007236
0
VERTEX
8
1
10
16.715454
20
11.782936
42
-0.159645
0
VERTEX
8
1
10
16.471161
20
11.464348
42
-0.114366
0
VERTEX
8
1
10
16.130188
20
11.328651
0
VERTEX
8
1
10
16.101318
20
11.324211
42
0.651555
0
VERTEX
8
1
10
16.091675
20
11.226593
42
0.091091
0
SEQEND
0
POLYLINE
8
1
66
1
70
1
0
VERTEX
8
1
10
15.546661
20
10.692635
0
VERTEX
8
1
10
15.561646
20
10.692413
42
0.226239
0
VERTEX
8
1
10
15.954529
20
10.772964
42
0.918784
0
VERTEX
8
1
10
15.910980
20
10.817535
42
-0.204447
0
VERTEX
8
1
10
15.601044
20
10.747841
42
-0.079236
0
VERTEX
8
1
10
15.447266
20
10.805351
42
0.622357
0
VERTEX
8
1
10
15.411667
20
10.762009
42
0.072266
0
VERTEX
8
1
10
15.505661
20
10.645088
42
-0.161713
0
VERTEX
8
1
10
15.233612
20
10.664124
42
-0.011523
0
VERTEX
8
1
10
15.157104
20
10.694801
42
0.839265
0
VERTEX
8
1
10
15.138763
20
10.636040
0
VERTEX
8
1
10
15.172653
20
10.620659
0
VERTEX
8
1
10
15.207291
20
10.607071
42
0.166520
0
VERTEX
8
1
10
15.538803
20
10.588432
0
VERTEX
8
1
10
15.581146
20
10.597679
42
0.606537
0
VERTEX
8
1
10
15.586761
20
10.653587
0
SEQEND
0
POLYLINE
8
1
66
1
70
1
0
VERTEX
8
1
10
15.065155
20
10.108009
42
0.097049
0
VERTEX
8
1
10
15.325638
20
10.065575
42
0.060681
0
VERTEX
8
1
10
15.751053
20
10.104973
42
0.757291
0
VERTEX
8
1
10
15.756088
20
10.166351
42
-0.059880
0
VERTEX
8
1
10
15.621460
20
10.276268
0
VERTEX
8
1
10
15.650497
20
10.279991
0
VERTEX
8
1
10
15.799988
20
10.270233
0
VERTEX
8
1
10
15.948563
20
10.278763
0
VERTEX
8
1
10
16.094040
20
10.302353
42
0.094866
0
VERTEX
8
1
10
16.908493
20
10.662224
42
0.674002
0
VERTEX
8
1
10
16.881363
20
10.713417
42
-0.089996
0
VERTEX
8
1
10
16.604340
20
10.722275
42
-0.220773
0
VERTEX
8
1
10
16.568970
20
10.744614
0
VERTEX
8
1
10
16.568008
20
10.748322
0
VERTEX
8
1
10
16.661728
20
10.775612
42
0.254373
0
VERTEX
8
1
10
17.072418
20
11.258316
42
1.087069
0
VERTEX
8
1
10
17.010574
20
11.267616
0
VERTEX
8
1
10
17.003036
20
11.236534
42
-0.289708
0
VERTEX
8
1
10
16.535782
20
10.805557
42
0.332117
0
VERTEX
8
1
10
16.506989
20
10.768257
42
0.346375
0
VERTEX
8
1
10
16.550812
20
10.678696
0
VERTEX
8
1
10
16.567688
20
10.669899
42
0.098628
0
VERTEX
8
1
10
16.763641
20
10.643311
0
VERTEX
8
1
10
16.723541
20
10.616493
42
-0.074833
0
VERTEX
8
1
10
16.080490
20
10.364883
42
-0.109782
0
VERTEX
8
1
10
15.557922
20
10.361000
42
0.631917
0
VERTEX
8
1
10
15.523209
20
10.315613
0
VERTEX
8
1
10
15.529648
20
10.299950
42
0.116093
0
VERTEX
8
1
10
15.667572
20
10.151672
42
-0.076781
0
VERTEX
8
1
10
15.164398
20
10.143364
42
-0.014230
0
VERTEX
8
1
10
15.077301
20
10.167244
42
0.770713
0
SEQEND
0
POLYLINE
8
1
66
1
70
1
0
VERTEX
8
1
10
17.028229
20
7.060112
0
VERTEX
8
1
10
17.011703
20
7.064850
42
0.263130
0
VERTEX
8
1
10
17.120560
20
7.228264
42
0.787263
0
VERTEX
8
1
10
17.059875
20
7.225143
0
VERTEX
8
1
10
17.054382
20
7.205330
42
-0.364818
0
VERTEX
8
1
10
16.918457
20
7.111252
42
0.606038
0
VERTEX
8
1
10
16.901825
20
7.058395
42
0.235665
0
VERTEX
8
1
10
17.122284
20
6.996460
42
0.942813
0
VERTEX
8
1
10
17.099213
20
7.054596
42
-0.104798
0
SEQEND
0
POLYLINE
8
1
66
1
70
1
0
VERTEX
8
1
10
16.904572
20
7.588394
0
VERTEX
8
1
10
16.905426
20
7.578049
42
-0.091194
0
VERTEX
8
1
10
16.833786
20
7.440514
42
0.125904
0
VERTEX
8
1
10
16.807297
20
7.371346
42
0.308033
0
VERTEX
8
1
10
16.841599
20
7.330009
42
-0.000113
0
VERTEX
8
1
10
17.027603
20
7.285614
42
0.825643
0
VERTEX
8
1
10
17.031097
20
7.346901
42
0.013812
0
VERTEX
8
1
10
16.880753
20
7.385170
0
VERTEX
8
1
10
16.877228
20
7.390625
0
VERTEX
8
1
10
16.933563
20
7.481476
42
0.198710
0
VERTEX
8
1
10
16.964050
20
7.681656
42
0.542436
0
VERTEX
8
1
10
16.907059
20
7.677338
42
-0.364094
0
VERTEX
8
1
10
16.842072
20
7.642067
42
-0.256617
0
VERTEX
8
1
10
16.809952
20
7.684479
42
-0.036124
0
VERTEX
8
1
10
16.790512
20
7.772621
42
0.001706
0
VERTEX
8
1
10
16.871307
20
7.829254
42
0.584671
0
VERTEX
8
1
10
16.815125
20
8.044792
42
0.046139
0
VERTEX
8
1
10
16.727585
20
8.089729
0
VERTEX
8
1
10
16.714142
20
8.093262
0
VERTEX
8
1
10
16.712692
20
8.097015
0
VERTEX
8
1
10
16.763168
20
8.166840
42
0.298418
0
VERTEX
8
1
10
16.772858
20
8.321655
42
0.382615
0
VERTEX
8
1
10
16.725922
20
8.321503
42
-0.120904
0
VERTEX
8
1
10
16.707855
20
8.328522
0
VERTEX
8
1
10
16.752945
20
8.366768
0
VERTEX
8
1
10
16.763397
20
8.376572
0
VERTEX
8
1
10
16.772720
20
8.387451
42
0.706784
0
VERTEX
8
1
10
16.722000
20
8.497215
42
0.085096
0
VERTEX
8
1
10
16.675751
20
8.492096
0
VERTEX
8
1
10
16.600388
20
8.473610
0
VERTEX
8
1
10
16.597610
20
8.476891
42
-0.069520
0
VERTEX
8
1
10
16.594833
20
8.532639
0
VERTEX
8
1
10
16.681488
20
8.575958
42
0.171215
0
VERTEX
8
1
10
16.904419
20
8.629478
0
VERTEX
8
1
10
16.916031
20
8.640923
42
0.522511
0
VERTEX
8
1
10
16.902771
20
8.730995
42
0.139048
0
VERTEX
8
1
10
16.783875
20
8.751091
0
VERTEX
8
1
10
16.761398
20
8.753731
42
-0.023516
0
VERTEX
8
1
10
16.610306
20
8.807411
42
-0.019372
0
VERTEX
8
1
10
16.476654
20
8.836739
42
-0.095501
0
VERTEX
8
1
10
16.583420
20
8.871719
42
0.153961
0
VERTEX
8
1
10
16.685638
20
8.936630
0
VERTEX
8
1
10
16.689316
20
8.938118
0
VERTEX
8
1
10
16.704071
20
8.939178
0
VERTEX
8
1
10
16.727722
20
8.945656
42
0.200846
0
VERTEX
8
1
10
16.837128
20
9.075890
42
0.419615
0
VERTEX
8
1
10
16.794876
20
9.130478
0
VERTEX
8
1
10
16.777542
20
9.132446
42
0.028837
0
VERTEX
8
1
10
16.666794
20
9.126282
42
-0.137167
0
VERTEX
8
1
10
16.636887
20
9.139725
42
0.052038
0
VERTEX
8
1
10
16.508682
20
9.222801
42
0.052695
0
VERTEX
8
1
10
16.589218
20
9.288857
42
-0.107245
0
VERTEX
8
1
10
16.688065
20
9.325241
42
0.422663
0
VERTEX
8
1
10
16.795013
20
9.350143
42
0.122366
0
VERTEX
8
1
10
16.832428
20
9.429657
42
0.304055
0
VERTEX
8
1
10
16.811325
20
9.457298
42
0.058488
0
VERTEX
8
1
10
16.630890
20
9.503075
42
-0.117585
0
VERTEX
8
1
10
16.623688
20
9.585800
42
0.891309
0
VERTEX
8
1
10
16.561630
20
9.582230
42
0.168493
0
VERTEX
8
1
10
16.582825
20
9.463470
42
0.253893
0
VERTEX
8
1
10
16.639679
20
9.437988
42
-0.054836
0
VERTEX
8
1
10
16.757202
20
9.409981
42
-0.221083
0
VERTEX
8
1
10
16.730331
20
9.375534
0
VERTEX
8
1
10
16.727280
20
9.375740
42
0.242304
0
VERTEX
8
1
10
16.647980
20
9.381226
42
0.160332
0
VERTEX
8
1
10
16.503479
20
9.295616
0
VERTEX
8
1
10
16.489349
20
9.284836
42
0.257200
0
VERTEX
8
1
10
16.438217
20
9.223419
42
0.270965
0
VERTEX
8
1
10
16.465958
20
9.176193
0
VERTEX
8
1
10
16.480392
20
9.165627
42
-0.049082
0
VERTEX
8
1
10
16.616776
20
9.078606
42
0.163975
0
VERTEX
8
1
10
16.700684
20
9.064262
0
VERTEX
8
1
10
16.763428
20
9.069923
0
VERTEX
8
1
10
16.764526
20
9.064461
42
-0.220389
0
VERTEX
8
1
10
16.688492
20
8.999847
42
0.222594
0
VERTEX
8
1
10
16.624054
20
8.964912
42
-0.180404
0
VERTEX
8
1
10
16.561737
20
8.931068
42
0.107254
0
VERTEX
8
1
10
16.427902
20
8.878258
0
VERTEX
8
1
10
16.407822
20
8.852547
42
0.419267
0
VERTEX
8
1
10
16.436203
20
8.786423
42
0.054838
0
VERTEX
8
1
10
16.589828
20
8.748116
42
-0.012097
0
VERTEX
8
1
10
16.722000
20
8.698616
42
0.054797
0
VERTEX
8
1
10
16.841385
20
8.686523
42
-0.112152
0
VERTEX
8
1
10
16.865662
20
8.678261
0
VERTEX
8
1
10
16.858932
20
8.673264
42
-0.159153
0
VERTEX
8
1
10
16.671371
20
8.639069
42
0.129699
0
VERTEX
8
1
10
16.651550
20
8.630867
0
VERTEX
8
1
10
16.547913
20
8.578796
42
0.243942
0
VERTEX
8
1
10
16.533707
20
8.553108
0
VERTEX
8
1
10
16.531906
20
8.532661
42
0.203153
0
VERTEX
8
1
10
16.558395
20
8.423553
42
0.287691
0
VERTEX
8
1
10
16.625549
20
8.415413
42
-0.064367
0
VERTEX
8
1
10
16.725327
20
8.435005
0
VERTEX
8
1
10
16.728470
20
8.432159
0
VERTEX
8
1
10
16.720444
20
8.422630
42
0.024900
0
VERTEX
8
1
10
16.649643
20
8.355690
42
0.476154
0
VERTEX
8
1
10
16.676773
20
8.274017
42
0.120676
0
VERTEX
8
1
10
16.728317
20
8.258400
42
-0.216219
0
VERTEX
8
1
10
16.712433
20
8.204491
42
-0.027924
0
VERTEX
8
1
10
16.653412
20
8.120750
0
VERTEX
8
1
10
16.646469
20
8.106064
42
0.527026
0
VERTEX
8
1
10
16.680756
20
8.036674
42
-0.131439
0
VERTEX
8
1
10
16.764938
20
8.000023
0
VERTEX
8
1
10
16.780212
20
7.992065
0
VERTEX
8
1
10
16.795822
20
7.984787
42
-0.670078
0
VERTEX
8
1
10
16.818954
20
7.866814
42
0.070071
0
VERTEX
8
1
10
16.739441
20
7.808594
42
0.259715
0
VERTEX
8
1
10
16.729401
20
7.752754
0
VERTEX
8
1
10
16.745438
20
7.682236
0
VERTEX
8
1
10
16.755295
20
7.652512
42
0.364930
0
VERTEX
8
1
10
16.869156
20
7.577667
42
0.090881
0
SEQEND
0
POLYLINE
8
1
66
1
70
1
0
VERTEX
8
1
10
16.138092
20
9.148834
0
VERTEX
8
1
10
16.126678
20
9.150040
42
0.053676
0
VERTEX
8
1
10
16.274323
20
9.317955
42
0.890102
0
VERTEX
8
1
10
16.220657
20
9.349243
42
-0.061408
0
VERTEX
8
1
10
16.072052
20
9.186829
42
0.506810
0
VERTEX
8
1
10
16.054337
20
9.130219
42
0.286440
0
VERTEX
8
1
10
16.125824
20
9.087433
42
0.130797
0
VERTEX
8
1
10
16.268005
20
9.114166
42
0.787037
0
VERTEX
8
1
10
16.235809
20
9.165680
42
-0.085408
0
SEQEND
0
POLYLINE
8
1
66
1
70
1
0
VERTEX
8
1
10
16.177292
20
8.363953
42
0.235742
0
VERTEX
8
1
10
16.397736
20
8.302002
42
0.943180
0
VERTEX
8
1
10
16.374680
20
8.360130
42
-0.120620
0
VERTEX
8
1
10
16.287170
20
8.370407
42
0.263178
0
VERTEX
8
1
10
16.396011
20
8.533821
42
0.787139
0
VERTEX
8
1
10
16.335312
20
8.530701
0
VERTEX
8
1
10
16.329865
20
8.510895
42
-0.365102
0
VERTEX
8
1
10
16.193924
20
8.416817
42
0.606390
0
SEQEND
0
POLYLINE
8
1
66
1
70
1
0
VERTEX
8
1
10
16.327698
20
7.596062
0
VERTEX
8
1
10
16.303604
20
7.574455
0
VERTEX
8
1
10
16.271149
20
7.559769
0
VERTEX
8
1
10
16.229233
20
7.556114
42
0.692612
0
VERTEX
8
1
10
16.205063
20
7.502846
42
0.235672
0
VERTEX
8
1
10
16.425507
20
7.440895
42
0.943180
0
VERTEX
8
1
10
16.402451
20
7.499023
42
-0.120469
0
VERTEX
8
1
10
16.314941
20
7.509300
42
0.263119
0
VERTEX
8
1
10
16.423798
20
7.672707
42
0.787263
0
VERTEX
8
1
10
16.363113
20
7.669586
42
-0.118539
0
SEQEND
0
POLYLINE
8
1
66
1
70
1
0
VERTEX
8
1
10
16.634354
20
7.778442
0
VERTEX
8
1
10
16.639786
20
7.779137
42
1.215353
0
VERTEX
8
1
10
16.633957
20
7.841621
42
-0.120146
0
VERTEX
8
1
10
16.546448
20
7.851883
42
0.262951
0
VERTEX
8
1
10
16.655273
20
8.015251
42
0.784287
0
VERTEX
8
1
10
16.594604
20
8.012283
0
VERTEX
8
1
10
16.588943
20
7.992470
42
-0.360196
0
VERTEX
8
1
10
16.453186
20
7.898293
42
0.606389
0
VERTEX
8
1
10
16.436554
20
7.845421
42
0.201827
0
SEQEND
0
POLYLINE
8
1
66
1
70
1
0
VERTEX
8
1
10
16.519882
20
7.197289
42
0.235716
0
VERTEX
8
1
10
16.740326
20
7.135345
42
0.943180
0
VERTEX
8
1
10
16.717270
20
7.193474
42
-0.120732
0
VERTEX
8
1
10
16.629761
20
7.203743
42
0.263119
0
VERTEX
8
1
10
16.738617
20
7.367149
42
0.787442
0
VERTEX
8
1
10
16.677933
20
7.364037
0
VERTEX
8
1
10
16.672424
20
7.344223
42
-0.364460
0
VERTEX
8
1
10
16.536514
20
7.250153
42
0.606390
0
SEQEND
0
POLYLINE
8
1
66
1
70
1
0
VERTEX
8
1
10
16.517517
20
9.870964
42
-0.170737
0
VERTEX
8
1
10
16.382706
20
9.948036
0
VERTEX
8
1
10
16.424423
20
9.965660
42
0.118998
0
VERTEX
8
1
10
16.638306
20
10.058937
42
0.174731
0
VERTEX
8
1
10
16.775848
20
10.274162
42
0.984373
0
VERTEX
8
1
10
16.713364
20
10.280693
42
-0.171846
0
VERTEX
8
1
10
16.605316
20
10.112267
0
VERTEX
8
1
10
16.556015
20
10.078362
0
VERTEX
8
1
10
16.493958
20
10.049469
0
VERTEX
8
1
10
16.417801
20
10.028069
0
VERTEX
8
1
10
16.326096
20
10.016678
42
0.552779
0
VERTEX
8
1
10
16.300369
20
9.969254
42
0.223397
0
VERTEX
8
1
10
16.451660
20
9.825104
42
-0.107838
0
VERTEX
8
1
10
16.300949
20
9.772408
42
-0.061096
0
VERTEX
8
1
10
15.943695
20
9.761818
42
-0.020800
0
VERTEX
8
1
10
15.575714
20
9.808334
42
0.431902
0
VERTEX
8
1
10
15.507874
20
9.683052
0
VERTEX
8
1
10
15.500259
20
9.679428
42
-0.039019
0
VERTEX
8
1
10
15.138947
20
9.683357
42
0.992341
0
VERTEX
8
1
10
15.141571
20
9.620590
42
0.044904
0
VERTEX
8
1
10
15.564636
20
9.621857
42
0.579541
0
VERTEX
8
1
10
15.578949
20
9.675514
42
-0.444417
0
VERTEX
8
1
10
15.583511
20
9.744453
0
VERTEX
8
1
10
15.802246
20
9.712494
0
VERTEX
8
1
10
15.985428
20
9.696770
42
0.064683
0
VERTEX
8
1
10
16.352158
20
9.719353
42
0.104942
0
VERTEX
8
1
10
16.510284
20
9.788101
0
VERTEX
8
1
10
16.531204
20
9.808289
0
VERTEX
8
1
10
16.541504
20
9.822464
42
0.568118
0
SEQEND
0
POLYLINE
8
1
66
1
70
1
0
VERTEX
8
1
10
16.113861
20
8.642624
42
0.986580
0
VERTEX
8
1
10
16.100220
20
8.703903
0
VERTEX
8
1
10
16.054855
20
8.703987
0
VERTEX
8
1
10
16.050568
20
8.708252
42
0.119661
0
VERTEX
8
1
10
16.147156
20
8.827568
42
0.787319
0
VERTEX
8
1
10
16.089722
20
8.847267
42
-0.113928
0
VERTEX
8
1
10
15.994888
20
8.745796
0
VERTEX
8
1
10
15.967316
20
8.734367
0
VERTEX
8
1
10
15.947083
20
8.732018
42
0.867681
0
VERTEX
8
1
10
15.944611
20
8.667755
42
0.141841
0
SEQEND
0
POLYLINE
8
1
66
1
70
1
0
VERTEX
8
1
10
16.285248
20
7.866356
42
0.936701
0
VERTEX
8
1
10
16.265533
20
7.925522
42
-0.180978
0
VERTEX
8
1
10
16.200470
20
7.930305
0
VERTEX
8
1
10
16.214310
20
7.941650
42
0.196981
0
VERTEX
8
1
10
16.313904
20
8.060844
42
0.904235
0
VERTEX
8
1
10
16.251862
20
8.069092
42
-0.281805
0
VERTEX
8
1
10
16.122650
20
7.979744
42
0.464649
0
VERTEX
8
1
10
16.108185
20
7.931892
42
0.345485
0
SEQEND
0
POLYLINE
8
1
66
1
70
1
0
VERTEX
8
1
10
16.393600
20
6.991417
0
VERTEX
8
1
10
16.399063
20
6.992104
42
1.216406
0
VERTEX
8
1
10
16.393204
20
7.054581
42
-0.120543
0
VERTEX
8
1
10
16.305679
20
7.064850
42
0.262954
0
VERTEX
8
1
10
16.414536
20
7.228264
42
0.787263
0
VERTEX
8
1
10
16.353851
20
7.225143
0
VERTEX
8
1
10
16.348328
20
7.205322
42
-0.364019
0
VERTEX
8
1
10
16.212433
20
7.111259
42
0.606544
0
VERTEX
8
1
10
16.195801
20
7.058403
42
0.201861
0
SEQEND
0
POLYLINE
8
1
66
1
70
1
0
VERTEX
8
1
10
16.513580
20
6.591621
42
-0.119759
0
VERTEX
8
1
10
16.426071
20
6.601883
42
0.263101
0
VERTEX
8
1
10
16.534897
20
6.765259
42
0.784142
0
VERTEX
8
1
10
16.474228
20
6.762283
0
VERTEX
8
1
10
16.468567
20
6.742485
42
-0.359843
0
VERTEX
8
1
10
16.332809
20
6.648293
42
0.606389
0
VERTEX
8
1
10
16.316177
20
6.595421
42
0.235576
0
VERTEX
8
1
10
16.536621
20
6.533478
42
0.943124
0
SEQEND
0
POLYLINE
8
1
66
1
70
1
0
VERTEX
8
1
10
16.772842
20
6.202728
42
-0.119938
0
VERTEX
8
1
10
16.685333
20
6.212990
42
0.262939
0
VERTEX
8
1
10
16.794159
20
6.376373
42
0.784239
0
VERTEX
8
1
10
16.733490
20
6.373390
0
VERTEX
8
1
10
16.727859
20
6.353600
42
-0.360181
0
VERTEX
8
1
10
16.592072
20
6.259399
42
0.606390
0
VERTEX
8
1
10
16.575439
20
6.206535
42
0.235672
0
VERTEX
8
1
10
16.795883
20
6.144585
42
0.943193
0
SEQEND
0
POLYLINE
8
1
66
1
70
1
0
VERTEX
8
1
10
16.910248
20
6.609451
42
0.890488
0
VERTEX
8
1
10
16.883942
20
6.665695
42
-0.120732
0
VERTEX
8
1
10
16.796432
20
6.675964
42
0.263003
0
VERTEX
8
1
10
16.905273
20
6.839378
42
0.787127
0
VERTEX
8
1
10
16.844574
20
6.836258
0
VERTEX
8
1
10
16.839127
20
6.816437
42
-0.365517
0
VERTEX
8
1
10
16.703186
20
6.722374
42
0.606390
0
VERTEX
8
1
10
16.686554
20
6.669510
42
0.231508
0
VERTEX
8
1
10
16.904037
20
6.606819
0
SEQEND
0
POLYLINE
8
1
66
1
70
1
0
VERTEX
8
1
10
16.899506
20
6.058395
42
0.235738
0
VERTEX
8
1
10
17.119965
20
5.996445
42
0.942813
0
VERTEX
8
1
10
17.096893
20
6.054581
42
-0.120732
0
VERTEX
8
1
10
17.009384
20
6.064850
42
0.262954
0
VERTEX
8
1
10
17.118240
20
6.228264
42
0.787263
0
VERTEX
8
1
10
17.057556
20
6.225143
0
VERTEX
8
1
10
17.052094
20
6.205322
42
-0.364919
0
VERTEX
8
1
10
16.916138
20
6.111252
42
0.606038
0
SEQEND
0
POLYLINE
8
1
66
1
70
1
0
VERTEX
8
1
10
17.161713
20
5.684204
42
-0.120440
0
VERTEX
8
1
10
17.074203
20
5.694481
42
0.263158
0
VERTEX
8
1
10
17.183060
20
5.857887
42
0.787263
0
VERTEX
8
1
10
17.122375
20
5.854767
0
VERTEX
8
1
10
17.116852
20
5.834953
42
-0.364095
0
VERTEX
8
1
10
16.980957
20
5.740875
42
0.606038
0
VERTEX
8
1
10
16.964325
20
5.688019
42
0.235554
0
VERTEX
8
1
10
17.184784
20
5.626076
42
0.943425
0
SEQEND
0
POLYLINE
8
1
66
1
70
1
0
VERTEX
8
1
10
17.559875
20
5.461983
42
-0.120340
0
VERTEX
8
1
10
17.472351
20
5.472252
42
0.263042
0
VERTEX
8
1
10
17.581192
20
5.635666
42
0.787127
0
VERTEX
8
1
10
17.520493
20
5.632545
0
VERTEX
8
1
10
17.515030
20
5.612732
42
-0.364727
0
VERTEX
8
1
10
17.379105
20
5.518661
42
0.606544
0
VERTEX
8
1
10
17.362473
20
5.465805
42
0.235808
0
VERTEX
8
1
10
17.582932
20
5.403854
42
0.943180
0
SEQEND
0
POLYLINE
8
1
66
1
70
1
0
VERTEX
8
1
10
17.860916
20
6.049484
42
0.063842
0
VERTEX
8
1
10
17.729660
20
6.158455
42
-0.038325
0
VERTEX
8
1
10
17.679123
20
6.202965
0
VERTEX
8
1
10
17.678345
20
6.210228
42
0.847204
0
VERTEX
8
1
10
17.623138
20
6.237724
0
VERTEX
8
1
10
17.613663
20
6.215706
0
VERTEX
8
1
10
17.615540
20
6.191360
0
VERTEX
8
1
10
17.628265
20
6.167419
42
0.070137
0
VERTEX
8
1
10
17.751678
20
6.065392
42
-0.022116
0
VERTEX
8
1
10
17.795578
20
6.028069
42
0.107882
0
VERTEX
8
1
10
17.758316
20
5.959816
42
0.470340
0
VERTEX
8
1
10
17.696655
20
5.895805
42
0.096319
0
VERTEX
8
1
10
17.708038
20
5.816826
0
VERTEX
8
1
10
17.708221
20
5.802223
42
-0.223889
0
VERTEX
8
1
10
17.617477
20
5.742287
42
-0.168855
0
VERTEX
8
1
10
17.531845
20
5.781792
42
-0.074493
0
VERTEX
8
1
10
17.451447
20
5.838173
0
VERTEX
8
1
10
17.445938
20
5.848869
0
VERTEX
8
1
10
17.442703
20
5.860474
42
0.307349
0
VERTEX
8
1
10
17.337204
20
6.029488
42
-0.125180
0
VERTEX
8
1
10
17.290558
20
6.084740
0
VERTEX
8
1
10
17.272949
20
6.114075
0
VERTEX
8
1
10
17.277847
20
6.121223
42
0.419171
0
VERTEX
8
1
10
17.280441
20
6.194077
42
0.166947
0
VERTEX
8
1
10
17.198547
20
6.221359
0
VERTEX
8
1
10
17.191467
20
6.233955
42
0.063618
0
VERTEX
8
1
10
17.146545
20
6.452667
42
0.418330
0
VERTEX
8
1
10
17.101776
20
6.461357
42
-0.027823
0
VERTEX
8
1
10
17.163956
20
6.556023
42
0.804794
0
VERTEX
8
1
10
17.112289
20
6.588509
42
0.061856
0
VERTEX
8
1
10
17.024689
20
6.447922
0
VERTEX
8
1
10
17.016449
20
6.419762
42
0.641291
0
VERTEX
8
1
10
17.088547
20
6.357849
0
VERTEX
8
1
10
17.096649
20
6.360641
0
VERTEX
8
1
10
17.104401
20
6.364311
0
VERTEX
8
1
10
17.111923
20
6.345161
42
-0.043485
0
VERTEX
8
1
10
17.132248
20
6.183228
42
0.399008
0
VERTEX
8
1
10
17.175140
20
6.160095
42
-0.035207
0
VERTEX
8
1
10
17.219635
20
6.154892
0
VERTEX
8
1
10
17.220322
20
6.147415
42
0.344542
0
VERTEX
8
1
10
17.223602
20
6.075424
42
0.170432
0
VERTEX
8
1
10
17.334579
20
5.957428
42
-0.223296
0
VERTEX
8
1
10
17.376389
20
5.892639
0
VERTEX
8
1
10
17.384399
20
5.836792
42
0.196710
0
VERTEX
8
1
10
17.442062
20
5.762924
0
VERTEX
8
1
10
17.501175
20
5.726776
0
VERTEX
8
1
10
17.506256
20
5.720749
42
0.125710
0
VERTEX
8
1
10
17.623657
20
5.679764
0
VERTEX
8
1
10
17.656647
20
5.685577
42
0.210797
0
VERTEX
8
1
10
17.776810
20
5.800255
42
0.040541
0
VERTEX
8
1
10
17.761459
20
5.862640
42
0.441438
0
VERTEX
8
1
10
17.802094
20
5.879623
42
-0.004900
0
VERTEX
8
1
10
17.829971
20
5.969666
42
-0.105221
0
VERTEX
8
1
10
17.862701
20
6.003181
42
0.362176
0
SEQEND
0
POLYLINE
8
1
66
1
70
1
0
VERTEX
8
1
10
17.563889
20
6.580917
42
0.035556
0
VERTEX
8
1
10
17.776413
20
6.482872
42
-0.104190
0
VERTEX
8
1
10
17.842194
20
6.423203
42
0.193306
0
VERTEX
8
1
10
17.977417
20
6.367180
42
-0.092626
0
VERTEX
8
1
10
18.127914
20
6.310532
42
0.134090
0
VERTEX
8
1
10
18.235214
20
6.284554
0
VERTEX
8
1
10
18.249374
20
6.281876
42
0.086604
0
VERTEX
8
1
10
18.382675
20
6.243675
42
-0.025582
0
VERTEX
8
1
10
18.582733
20
6.202240
42
0.830326
0
VERTEX
8
1
10
18.586761
20
6.263618
42
0.042391
0
VERTEX
8
1
10
18.348312
20
6.312546
0
VERTEX
8
1
10
18.326965
20
6.318314
42
0.078470
0
VERTEX
8
1
10
18.230240
20
6.348152
42
-0.146186
0
VERTEX
8
1
10
18.148239
20
6.370697
42
0.103096
0
VERTEX
8
1
10
17.942307
20
6.435913
42
-0.175452
0
VERTEX
8
1
10
17.875793
20
6.479424
42
0.144184
0
VERTEX
8
1
10
17.760651
20
6.557945
42
-0.030705
0
VERTEX
8
1
10
17.583786
20
6.639145
42
0.837713
0
SEQEND
0
POLYLINE
8
1
66
1
70
1
0
VERTEX
8
1
10
18.067688
20
5.463524
42
-0.362264
0
VERTEX
8
1
10
17.936172
20
5.566612
0
VERTEX
8
1
10
17.931656
20
5.583954
42
0.889002
0
VERTEX
8
1
10
17.872375
20
5.565460
42
0.227894
0
VERTEX
8
1
10
17.981964
20
5.416702
42
-0.115090
0
VERTEX
8
1
10
17.878860
20
5.407486
42
0.831007
0
VERTEX
8
1
10
17.878891
20
5.345894
42
0.232872
0
VERTEX
8
1
10
18.096512
20
5.416183
42
0.606398
0
SEQEND
0
POLYLINE
8
1
66
1
70
1
0
VERTEX
8
1
10
18.766525
20
6.263832
42
0.369795
0
VERTEX
8
1
10
18.689575
20
6.221855
42
-0.126957
0
VERTEX
8
1
10
18.624023
20
6.145409
0
VERTEX
8
1
10
18.600571
20
6.124992
42
-0.019892
0
VERTEX
8
1
10
18.430130
20
5.966278
42
0.482420
0
VERTEX
8
1
10
18.431976
20
5.916351
42
-0.181092
0
VERTEX
8
1
10
18.386002
20
5.850006
0
VERTEX
8
1
10
18.371658
20
5.845436
0
VERTEX
8
1
10
18.356354
20
5.844093
0
VERTEX
8
1
10
18.303406
20
5.847839
42
0.236963
0
VERTEX
8
1
10
18.248749
20
5.819397
0
VERTEX
8
1
10
18.234070
20
5.803307
0
VERTEX
8
1
10
18.220596
20
5.786179
42
-0.102298
0
VERTEX
8
1
10
18.115128
20
5.660774
42
-0.299663
0
VERTEX
8
1
10
18.103500
20
5.661751
42
-0.116846
0
VERTEX
8
1
10
18.083542
20
5.714256
42
0.048037
0
VERTEX
8
1
10
18.165863
20
5.924408
0
VERTEX
8
1
10
18.174606
20
5.941818
42
-0.153791
0
VERTEX
8
1
10
18.259491
20
5.983032
42
0.899832
0
VERTEX
8
1
10
18.237885
20
6.041435
42
0.177255
0
VERTEX
8
1
10
18.122864
20
5.977211
0
VERTEX
8
1
10
18.106659
20
5.944725
42
-0.043731
0
VERTEX
8
1
10
18.020538
20
5.725113
42
0.181207
0
VERTEX
8
1
10
18.063324
20
5.613953
42
0.393148
0
VERTEX
8
1
10
18.163269
20
5.617996
0
VERTEX
8
1
10
18.178787
20
5.630501
0
VERTEX
8
1
10
18.193115
20
5.644371
42
-0.014133
0
VERTEX
8
1
10
18.301895
20
5.784424
0
VERTEX
8
1
10
18.311035
20
5.784729
0
VERTEX
8
1
10
18.320190
20
5.784485
42
0.377064
0
VERTEX
8
1
10
18.482742
20
5.873734
42
0.160314
0
VERTEX
8
1
10
18.494446
20
5.941017
42
0.024552
0
VERTEX
8
1
10
18.647507
20
6.083153
0
VERTEX
8
1
10
18.699600
20
6.127243
42
0.053268
0
VERTEX
8
1
10
18.751511
20
6.202744
42
1.010423
0
SEQEND
0
POLYLINE
8
1
66
1
70
1
0
VERTEX
8
1
10
18.890137
20
6.375824
0
VERTEX
8
1
10
18.840408
20
6.403297
42
0.078790
0
VERTEX
8
1
10
18.808594
20
6.412605
0
VERTEX
8
1
10
18.803391
20
6.418541
42
-0.060525
0
VERTEX
8
1
10
18.788132
20
6.519379
42
0.377398
0
VERTEX
8
1
10
18.750656
20
6.536697
0
VERTEX
8
1
10
18.606155
20
6.494293
42
-0.084603
0
VERTEX
8
1
10
18.485260
20
6.539314
0
VERTEX
8
1
10
18.485077
20
6.595886
42
0.380370
0
VERTEX
8
1
10
18.415070
20
6.665810
42
0.080318
0
VERTEX
8
1
10
18.364288
20
6.667999
42
-0.045770
0
VERTEX
8
1
10
18.178207
20
6.665108
42
-0.124885
0
VERTEX
8
1
10
18.149368
20
6.778130
42
0.381449
0
VERTEX
8
1
10
18.085876
20
6.817978
42
0.126593
0
VERTEX
8
1
10
18.006607
20
6.791290
0
VERTEX
8
1
10
17.986160
20
6.787773
42
0.058579
0
VERTEX
8
1
10
17.810684
20
6.767059
0
VERTEX
8
1
10
17.786057
20
6.756416
42
-0.342514
0
VERTEX
8
1
10
17.779770
20
6.839561
42
0.428428
0
VERTEX
8
1
10
17.746475
20
6.891006
0
VERTEX
8
1
10
17.728592
20
6.893791
42
0.024649
0
VERTEX
8
1
10
17.578674
20
6.881134
0
VERTEX
8
1
10
17.565262
20
6.877136
0
VERTEX
8
1
10
17.460449
20
6.836205
0
VERTEX
8
1
10
17.440582
20
6.831642
0
VERTEX
8
1
10
17.465836
20
6.892723
42
0.376229
0
VERTEX
8
1
10
17.450851
20
6.957474
42
0.241042
0
VERTEX
8
1
10
17.418564
20
6.956406
0
VERTEX
8
1
10
17.399567
20
6.942223
42
0.055016
0
VERTEX
8
1
10
17.287674
20
6.805321
0
VERTEX
8
1
10
17.278580
20
6.800102
0
VERTEX
8
1
10
17.184875
20
6.792290
0
VERTEX
8
1
10
17.182999
20
6.793686
0
VERTEX
8
1
10
17.248688
20
6.959633
42
0.870578
0
VERTEX
8
1
10
17.189743
20
6.978676
0
VERTEX
8
1
10
17.103928
20
6.762856
42
0.499277
0
VERTEX
8
1
10
17.137207
20
6.725586
0
VERTEX
8
1
10
17.309982
20
6.740623
42
0.207161
0
VERTEX
8
1
10
17.333191
20
6.761566
0
VERTEX
8
1
10
17.369034
20
6.809792
0
VERTEX
8
1
10
17.373383
20
6.813728
42
0.457751
0
VERTEX
8
1
10
17.431091
20
6.767258
0
VERTEX
8
1
10
17.448013
20
6.768997
42
0.034527
0
VERTEX
8
1
10
17.595947
20
6.821220
42
-0.002006
0
VERTEX
8
1
10
17.708267
20
6.830238
42
0.319969
0
VERTEX
8
1
10
17.765305
20
6.696510
42
0.242988
0
VERTEX
8
1
10
17.818222
20
6.702736
0
VERTEX
8
1
10
17.832352
20
6.708763
42
-0.039548
0
VERTEX
8
1
10
18.021072
20
6.727684
42
-0.061909
0
VERTEX
8
1
10
18.084778
20
6.755714
0
VERTEX
8
1
10
18.089737
20
6.745422
42
0.155120
0
VERTEX
8
1
10
18.144409
20
6.606155
42
0.156991
0
VERTEX
8
1
10
18.162720
20
6.600487
0
VERTEX
8
1
10
18.313751
20
6.600967
42
-0.077880
0
VERTEX
8
1
10
18.414413
20
6.601593
0
VERTEX
8
1
10
18.420593
20
6.598427
0
VERTEX
8
1
10
18.422760
20
6.585838
0
VERTEX
8
1
10
18.422836
20
6.518402
42
0.247666
0
VERTEX
8
1
10
18.438278
20
6.493622
42
0.069970
0
VERTEX
8
1
10
18.584305
20
6.434540
0
VERTEX
8
1
10
18.613708
20
6.432411
0
VERTEX
8
1
10
18.634277
20
6.436646
0
VERTEX
8
1
10
18.726761
20
6.464706
42
0.057268
0
VERTEX
8
1
10
18.753860
20
6.379288
42
0.278106
0
VERTEX
8
1
10
18.806900
20
6.349434
42
0.033070
0
VERTEX
8
1
10
18.889145
20
6.309654
42
0.615542
0
VERTEX
8
1
10
18.937119
20
6.372864
42
0.454233
0
SEQEND
0
POLYLINE
8
1
66
1
70
1
0
VERTEX
8
1
10
18.220551
20
9.935402
0
VERTEX
8
1
10
18.220520
20
9.939003
42
0.460271
0
VERTEX
8
1
10
18.148163
20
10.079689
0
VERTEX
8
1
10
18.102615
20
10.091476
0
VERTEX
8
1
10
18.040955
20
10.100098
42
0.047394
0
VERTEX
8
1
10
17.551498
20
10.080826
42
0.846268
0
VERTEX
8
1
10
17.568848
20
10.021683
42
-0.048140
0
VERTEX
8
1
10
18.053833
20
10.035744
42
-0.085473
0
VERTEX
8
1
10
18.148727
20
10.011086
42
-0.436753
0
VERTEX
8
1
10
18.158234
20
9.959023
42
0.760931
0
VERTEX
8
1
10
18.156418
20
9.889893
0
VERTEX
8
1
10
18.171082
20
9.884689
42
0.010060
0
VERTEX
8
1
10
18.453918
20
9.812943
0
VERTEX
8
1
10
18.458420
20
9.808983
42
0.518761
0
VERTEX
8
1
10
18.529968
20
9.689682
42
-0.077690
0
VERTEX
8
1
10
18.698013
20
9.658272
0
VERTEX
8
1
10
18.704742
20
9.652107
42
0.666083
0
VERTEX
8
1
10
18.735260
20
9.540092
0
VERTEX
8
1
10
18.755859
20
9.535538
42
0.018683
0
VERTEX
8
1
10
18.974274
20
9.529358
0
VERTEX
8
1
10
18.936432
20
9.491501
0
VERTEX
8
1
10
18.927261
20
9.480331
42
0.330091
0
VERTEX
8
1
10
18.914932
20
9.394806
42
0.244331
0
VERTEX
8
1
10
18.971329
20
9.369026
42
-0.026473
0
VERTEX
8
1
10
19.139359
20
9.362587
0
VERTEX
8
1
10
19.101425
20
9.339539
0
VERTEX
8
1
10
19.089828
20
9.331001
42
0.660953
0
VERTEX
8
1
10
19.100449
20
9.244492
0
VERTEX
8
1
10
19.112793
20
9.239044
42
0.043744
0
VERTEX
8
1
10
19.363281
20
9.188805
42
0.841761
0
VERTEX
8
1
10
19.360931
20
9.250351
42
-0.027219
0
VERTEX
8
1
10
19.146317
20
9.293961
42
0.073821
0
VERTEX
8
1
10
19.225815
20
9.350777
42
0.529335
0
VERTEX
8
1
10
19.194031
20
9.415848
42
0.054660
0
VERTEX
8
1
10
18.977585
20
9.431252
0
VERTEX
8
1
10
18.970398
20
9.431870
42
-0.091845
0
VERTEX
8
1
10
19.056595
20
9.511749
42
0.673194
0
VERTEX
8
1
10
19.030670
20
9.585144
0
VERTEX
8
1
10
19.007919
20
9.589294
42
-0.006271
0
VERTEX
8
1
10
18.767242
20
9.596710
42
-0.081345
0
VERTEX
8
1
10
18.745163
20
9.603622
42
-0.061897
0
VERTEX
8
1
10
18.787704
20
9.631439
42
0.417801
0
VERTEX
8
1
10
18.785706
20
9.681328
0
VERTEX
8
1
10
18.760056
20
9.699654
42
0.096121
0
VERTEX
8
1
10
18.533936
20
9.752594
42
-0.882331
0
VERTEX
8
1
10
18.527435
20
9.789764
42
0.654414
0
VERTEX
8
1
10
18.524200
20
9.855232
0
VERTEX
8
1
10
18.505707
20
9.862846
42
-0.000479
0
SEQEND
0
POLYLINE
8
1
66
1
70
1
0
VERTEX
8
1
10
17.780380
20
9.528465
42
-0.143578
0
VERTEX
8
1
10
17.761871
20
9.644478
42
0.810070
0
VERTEX
8
1
10
17.700821
20
9.640518
42
0.178676
0
VERTEX
8
1
10
17.740005
20
9.471329
42
0.090105
0
VERTEX
8
1
10
17.837799
20
9.361214
0
VERTEX
8
1
10
18.031738
20
9.201416
42
0.049550
0
VERTEX
8
1
10
18.287720
20
9.025620
42
0.186617
0
VERTEX
8
1
10
18.482574
20
8.998108
42
-0.028781
0
VERTEX
8
1
10
18.713531
20
9.027763
42
-0.099932
0
VERTEX
8
1
10
18.897507
20
8.993690
42
0.819598
0
VERTEX
8
1
10
18.911392
20
9.053391
42
0.137600
0
VERTEX
8
1
10
18.641693
20
9.085052
42
0.009888
0
VERTEX
8
1
10
18.443161
20
9.056259
42
-0.162233
0
VERTEX
8
1
10
18.323212
20
9.077293
42
-0.055950
0
VERTEX
8
1
10
18.043991
20
9.272751
42
-0.011229
0
VERTEX
8
1
10
17.842194
20
9.441437
42
-0.085436
0
SEQEND
0
POLYLINE
8
1
66
1
70
1
0
VERTEX
8
1
10
17.943741
20
9.490753
42
0.122679
0
VERTEX
8
1
10
18.184448
20
9.261330
0
VERTEX
8
1
10
18.228226
20
9.243034
42
0.050487
0
VERTEX
8
1
10
18.506485
20
9.188202
42
-0.037125
0
VERTEX
8
1
10
18.660995
20
9.157143
0
VERTEX
8
1
10
18.669769
20
9.153252
42
1.190624
0
VERTEX
8
1
10
18.700195
20
9.207855
42
0.076568
0
VERTEX
8
1
10
18.497940
20
9.251381
42
-0.031164
0
VERTEX
8
1
10
18.267929
20
9.295898
42
-0.144827
0
VERTEX
8
1
10
18.069000
20
9.432114
42
-0.039275
0
VERTEX
8
1
10
17.989929
20
9.533195
42
0.951441
0
SEQEND
0
POLYLINE
8
1
66
1
70
1
0
VERTEX
8
1
10
17.409729
20
7.372337
0
VERTEX
8
1
10
17.408997
20
7.372246
42
-0.101290
0
VERTEX
8
1
10
17.400757
20
7.442528
42
0.470514
0
VERTEX
8
1
10
17.337372
20
7.475151
42
0.121179
0
VERTEX
8
1
10
17.201828
20
7.367172
42
0.749671
0
VERTEX
8
1
10
17.252258
20
7.334633
42
-0.043809
0
VERTEX
8
1
10
17.335114
20
7.404831
0
VERTEX
8
1
10
17.340210
20
7.400543
42
0.221097
0
VERTEX
8
1
10
17.373825
20
7.319954
42
0.231818
0
VERTEX
8
1
10
17.427124
20
7.312119
42
-0.011297
0
VERTEX
8
1
10
17.607132
20
7.360741
42
-0.284484
0
VERTEX
8
1
10
17.653763
20
7.321083
42
0.369095
0
VERTEX
8
1
10
17.823334
20
7.280563
42
-0.110700
0
VERTEX
8
1
10
17.910080
20
7.359245
42
-0.048944
0
VERTEX
8
1
10
18.016006
20
7.252113
42
0.111144
0
VERTEX
8
1
10
18.144928
20
7.196144
42
0.272680
0
VERTEX
8
1
10
18.206314
20
7.218567
0
VERTEX
8
1
10
18.215820
20
7.225037
0
VERTEX
8
1
10
18.225769
20
7.230812
0
VERTEX
8
1
10
18.228760
20
7.224533
0
VERTEX
8
1
10
18.236008
20
7.196762
42
0.184206
0
VERTEX
8
1
10
18.340347
20
7.104927
42
0.894227
0
VERTEX
8
1
10
18.352219
20
7.166458
42
-0.147929
0
VERTEX
8
1
10
18.291992
20
7.225380
0
VERTEX
8
1
10
18.290695
20
7.238281
42
0.578510
0
VERTEX
8
1
10
18.209656
20
7.291252
42
0.113088
0
VERTEX
8
1
10
18.157272
20
7.258408
0
VERTEX
8
1
10
18.149414
20
7.258308
42
-0.106052
0
VERTEX
8
1
10
18.051788
20
7.306221
42
0.045506
0
VERTEX
8
1
10
17.951111
20
7.406731
42
0.313478
0
VERTEX
8
1
10
17.879150
20
7.414276
42
0.095375
0
VERTEX
8
1
10
17.780045
20
7.329659
42
-0.340056
0
VERTEX
8
1
10
17.699631
20
7.365898
42
0.380461
0
VERTEX
8
1
10
17.568604
20
7.415657
42
0.014206
0
SEQEND
0
POLYLINE
8
1
66
1
70
1
0
VERTEX
8
1
10
18.378311
20
6.897934
0
VERTEX
8
1
10
18.405579
20
6.881981
42
-0.114929
0
VERTEX
8
1
10
18.302475
20
6.872765
42
0.831007
0
VERTEX
8
1
10
18.302505
20
6.811172
42
0.232872
0
VERTEX
8
1
10
18.520126
20
6.881462
42
0.605913
0
VERTEX
8
1
10
18.491302
20
6.928787
42
-0.362051
0
VERTEX
8
1
10
18.359772
20
7.031883
0
VERTEX
8
1
10
18.355255
20
7.049225
42
0.889673
0
VERTEX
8
1
10
18.295990
20
7.030739
42
0.182598
0
SEQEND
0
POLYLINE
8
1
66
1
70
1
0
VERTEX
8
1
10
17.917130
20
7.018448
0
VERTEX
8
1
10
17.900604
20
7.023186
42
0.263178
0
VERTEX
8
1
10
18.009445
20
7.186600
42
0.787127
0
VERTEX
8
1
10
17.948746
20
7.183479
0
VERTEX
8
1
10
17.943237
20
7.163651
42
-0.364683
0
VERTEX
8
1
10
17.807358
20
7.069595
42
0.606390
0
VERTEX
8
1
10
17.790726
20
7.016731
42
0.235783
0
VERTEX
8
1
10
18.011169
20
6.954788
42
0.943180
0
VERTEX
8
1
10
17.988113
20
7.012917
42
-0.104367
0
SEQEND
0
POLYLINE
8
1
66
1
70
1
0
VERTEX
8
1
10
17.542130
20
7.101784
0
VERTEX
8
1
10
17.525604
20
7.106522
42
0.263130
0
VERTEX
8
1
10
17.634460
20
7.269936
42
0.787417
0
VERTEX
8
1
10
17.573776
20
7.266808
0
VERTEX
8
1
10
17.568253
20
7.247002
42
-0.363921
0
VERTEX
8
1
10
17.432358
20
7.152931
42
0.606389
0
VERTEX
8
1
10
17.415726
20
7.100060
42
0.235716
0
VERTEX
8
1
10
17.636169
20
7.038116
42
0.943369
0
VERTEX
8
1
10
17.613113
20
7.096260
42
-0.104900
0
SEQEND
0
POLYLINE
8
1
66
1
70
1
0
VERTEX
8
1
10
18.704697
20
6.717384
0
VERTEX
8
1
10
18.731964
20
6.701424
42
-0.114929
0
VERTEX
8
1
10
18.628860
20
6.692207
42
0.831007
0
VERTEX
8
1
10
18.628891
20
6.630615
42
0.232896
0
VERTEX
8
1
10
18.846512
20
6.700912
42
0.606429
0
VERTEX
8
1
10
18.817688
20
6.748245
42
-0.363420
0
VERTEX
8
1
10
18.686142
20
6.851318
0
VERTEX
8
1
10
18.681656
20
6.868668
42
0.889764
0
VERTEX
8
1
10
18.622360
20
6.850182
42
0.182705
0
SEQEND
0
POLYLINE
8
1
66
1
70
1
0
VERTEX
8
1
10
18.946854
20
6.721672
42
0.093360
0
VERTEX
8
1
10
19.105911
20
6.634331
42
0.216893
0
VERTEX
8
1
10
19.229813
20
6.656349
0
VERTEX
8
1
10
19.303955
20
6.692009
42
0.175230
0
VERTEX
8
1
10
19.425766
20
6.831749
42
0.044780
0
VERTEX
8
1
10
19.479477
20
7.002182
42
-0.000921
0
VERTEX
8
1
10
19.901901
20
8.428879
42
0.869009
0
VERTEX
8
1
10
19.840332
20
8.435234
42
0.003205
0
VERTEX
8
1
10
19.383743
20
6.894073
42
-0.223641
0
VERTEX
8
1
10
19.249451
20
6.733734
42
0.023057
0
VERTEX
8
1
10
19.166199
20
6.695518
42
-0.186100
0
VERTEX
8
1
10
19.070328
20
6.715805
42
-0.065017
0
VERTEX
8
1
10
18.921051
20
6.822647
42
0.009540
0
VERTEX
8
1
10
18.454926
20
7.225983
42
-0.086068
0
VERTEX
8
1
10
18.312393
20
7.402588
0
VERTEX
8
1
10
18.303101
20
7.424332
42
-0.300832
0
VERTEX
8
1
10
18.316757
20
7.566521
42
1.158675
0
VERTEX
8
1
10
18.278137
20
7.615707
42
0.294889
0
VERTEX
8
1
10
18.236618
20
7.423988
42
0.126816
0
VERTEX
8
1
10
18.382828
20
7.209320
0
VERTEX
8
1
10
18.424530
20
7.169640
42
-0.008270
0
VERTEX
8
1
10
18.880783
20
6.774811
0
VERTEX
8
1
10
18.913589
20
6.747955
0
SEQEND
0
POLYLINE
8
1
66
1
70
1
0
VERTEX
8
1
10
20.282471
20
8.803070
42
0.133937
0
VERTEX
8
1
10
20.286179
20
8.880150
42
0.220871
0
VERTEX
8
1
10
20.256027
20
8.905579
0
VERTEX
8
1
10
20.227585
20
8.908089
0
VERTEX
8
1
10
20.192612
20
8.902649
42
0.067225
0
VERTEX
8
1
10
19.986313
20
8.809700
42
0.846293
0
VERTEX
8
1
10
20.024765
20
8.761513
42
-0.065359
0
VERTEX
8
1
10
20.225204
20
8.846199
0
VERTEX
8
1
10
20.227097
20
8.842468
0
VERTEX
8
1
10
20.215195
20
8.794235
42
0.468782
0
VERTEX
8
1
10
20.258057
20
8.741013
42
0.154956
0
VERTEX
8
1
10
20.435944
20
8.788452
42
0.001011
0
VERTEX
8
1
10
20.576569
20
8.871002
42
0.132638
0
VERTEX
8
1
10
20.567017
20
8.799789
42
0.378352
0
VERTEX
8
1
10
20.622528
20
8.769432
42
0.090879
0
VERTEX
8
1
10
20.828430
20
8.860085
42
-0.024993
0
VERTEX
8
1
10
20.880722
20
8.886444
42
0.080422
0
VERTEX
8
1
10
20.880432
20
8.812935
42
0.356787
0
VERTEX
8
1
10
20.942673
20
8.782059
42
0.054385
0
VERTEX
8
1
10
21.075333
20
8.809319
42
0.022493
0
VERTEX
8
1
10
21.306351
20
8.875130
42
0.838183
0
VERTEX
8
1
10
21.278000
20
8.929756
42
-0.021238
0
VERTEX
8
1
10
20.957916
20
8.846611
0
VERTEX
8
1
10
20.942245
20
8.844727
0
VERTEX
8
1
10
20.939941
20
8.844551
0
VERTEX
8
1
10
20.943573
20
8.896248
42
0.523368
0
VERTEX
8
1
10
20.884354
20
8.952721
42
0.093038
0
VERTEX
8
1
10
20.767136
20
8.896164
42
-0.051825
0
VERTEX
8
1
10
20.631729
20
8.834724
0
VERTEX
8
1
10
20.652161
20
8.896278
42
0.708565
0
VERTEX
8
1
10
20.590958
20
8.947426
0
VERTEX
8
1
10
20.570877
20
8.938866
42
-0.019932
0
VERTEX
8
1
10
20.355591
20
8.819008
42
-0.083608
0
SEQEND
0
POLYLINE
8
1
66
1
70
1
0
VERTEX
8
1
10
20.535339
20
8.468628
42
-0.120169
0
VERTEX
8
1
10
20.344955
20
8.425758
42
-0.228244
0
VERTEX
8
1
10
20.250214
20
8.488876
42
-0.075609
0
VERTEX
8
1
10
20.203476
20
8.581902
42
0.957583
0
VERTEX
8
1
10
20.147644
20
8.553406
42
0.136877
0
VERTEX
8
1
10
20.249741
20
8.398941
42
0.208899
0
VERTEX
8
1
10
20.408356
20
8.365143
42
0.083595
0
VERTEX
8
1
10
20.570419
20
8.416931
42
0.935309
0
SEQEND
0
POLYLINE
8
1
66
1
70
1
0
VERTEX
8
1
10
19.959244
20
8.516693
42
0.019521
0
VERTEX
8
1
10
20.146179
20
8.269890
42
0.154865
0
VERTEX
8
1
10
20.169556
20
8.260178
0
VERTEX
8
1
10
20.189178
20
8.246391
42
0.295752
0
VERTEX
8
1
10
20.481873
20
8.205315
0
VERTEX
8
1
10
20.778214
20
8.347076
42
0.921636
0
VERTEX
8
1
10
20.745163
20
8.399925
0
VERTEX
8
1
10
20.437561
20
8.253899
42
-0.247230
0
VERTEX
8
1
10
20.257828
20
8.275375
42
-0.021968
0
VERTEX
8
1
10
20.168671
20
8.343697
0
VERTEX
8
1
10
20.164108
20
8.345665
42
-0.004489
0
VERTEX
8
1
10
20.003265
20
8.561516
42
0.976119
0
SEQEND
0
POLYLINE
8
1
66
1
70
1
0
VERTEX
8
1
10
19.653442
20
7.087982
42
0.928603
0
VERTEX
8
1
10
19.695602
20
7.042084
0
VERTEX
8
1
10
20.793991
20
7.912971
42
0.144485
0
VERTEX
8
1
10
20.926178
20
8.106750
0
VERTEX
8
1
10
20.960022
20
8.206253
42
-0.059290
0
VERTEX
8
1
10
21.106812
20
8.404915
0
VERTEX
8
1
10
21.376022
20
8.705963
42
0.045691
0
VERTEX
8
1
10
21.479401
20
8.843750
0
VERTEX
8
1
10
21.498184
20
8.888885
0
VERTEX
8
1
10
21.511627
20
8.936707
42
0.107611
0
VERTEX
8
1
10
21.496613
20
9.328918
42
0.978512
0
VERTEX
8
1
10
21.438507
20
9.305168
42
-0.089817
0
VERTEX
8
1
10
21.455383
20
8.974258
42
-0.118259
0
VERTEX
8
1
10
21.400635
20
8.834557
42
-0.015540
0
VERTEX
8
1
10
21.081085
20
8.470596
42
0.042342
0
VERTEX
8
1
10
20.922165
20
8.267578
42
0.038351
0
VERTEX
8
1
10
20.859512
20
8.107109
42
-0.136963
0
VERTEX
8
1
10
20.748383
20
7.956200
0
SEQEND
0
POLYLINE
8
1
66
1
70
1
0
VERTEX
8
1
10
19.123672
20
4.976418
0
VERTEX
8
1
10
19.121475
20
5.044044
0
VERTEX
8
1
10
19.123383
20
5.090424
42
-0.080833
0
VERTEX
8
1
10
19.259079
20
5.635880
42
0.242918
0
VERTEX
8
1
10
19.346268
20
5.560066
42
0.361953
0
VERTEX
8
1
10
19.401398
20
5.588676
0
VERTEX
8
1
10
19.401871
20
5.596199
0
VERTEX
8
1
10
19.398514
20
5.624748
0
VERTEX
8
1
10
19.395325
20
5.705963
42
-0.073165
0
VERTEX
8
1
10
19.501755
20
6.228661
0
VERTEX
8
1
10
19.526459
20
6.297348
42
0.974152
0
VERTEX
8
1
10
19.464737
20
6.309425
42
0.080950
0
VERTEX
8
1
10
19.333405
20
5.716896
0
VERTEX
8
1
10
19.333176
20
5.666664
0
VERTEX
8
1
10
19.331772
20
5.638039
42
-0.085826
0
VERTEX
8
1
10
19.287628
20
5.733131
42
0.621802
0
VERTEX
8
1
10
19.231552
20
5.733238
42
0.070530
0
VERTEX
8
1
10
19.067184
20
5.169357
42
0.052081
0
VERTEX
8
1
10
19.062302
20
4.962990
42
1.004282
0
SEQEND
0
POLYLINE
8
1
66
1
70
1
0
VERTEX
8
1
10
20.023895
20
6.030022
0
VERTEX
8
1
10
20.039032
20
6.034180
42
0.403889
0
VERTEX
8
1
10
20.068420
20
6.069763
42
-0.098881
0
VERTEX
8
1
10
20.109863
20
6.478622
42
-0.093019
0
VERTEX
8
1
10
20.386902
20
7.027969
0
VERTEX
8
1
10
20.398529
20
7.038643
42
0.971791
0
VERTEX
8
1
10
20.372284
20
7.095299
0
VERTEX
8
1
10
20.349976
20
7.078163
0
VERTEX
8
1
10
20.319489
20
7.043983
42
0.110624
0
VERTEX
8
1
10
20.018982
20
6.360085
0
VERTEX
8
1
10
20.004135
20
6.248627
0
VERTEX
8
1
10
20.000427
20
6.089088
42
-0.323608
0
VERTEX
8
1
10
19.912704
20
6.133476
42
-0.127208
0
VERTEX
8
1
10
19.873459
20
6.267593
42
0.572529
0
VERTEX
8
1
10
19.822464
20
6.284554
42
0.086730
0
VERTEX
8
1
10
19.768417
20
6.167625
42
0.058785
0
VERTEX
8
1
10
19.576553
20
5.209671
42
0.035459
0
VERTEX
8
1
10
19.582397
20
4.924683
42
-0.212652
0
VERTEX
8
1
10
19.499985
20
4.973679
42
-0.036533
0
VERTEX
8
1
10
19.446167
20
5.048958
42
0.575428
0
VERTEX
8
1
10
19.395126
20
5.030075
42
0.074125
0
VERTEX
8
1
10
19.311020
20
4.423874
42
0.074055
0
VERTEX
8
1
10
19.358597
20
4.154549
0
VERTEX
8
1
10
19.353912
20
4.147240
42
-0.093477
0
VERTEX
8
1
10
19.239761
20
4.255600
42
0.930301
0
VERTEX
8
1
10
19.193039
20
4.214302
42
0.125280
0
VERTEX
8
1
10
19.341782
20
4.084541
42
0.245806
0
VERTEX
8
1
10
19.433197
20
4.084991
42
0.335548
0
VERTEX
8
1
10
19.440430
20
4.121964
0
VERTEX
8
1
10
19.417206
20
4.176224
42
-0.103776
0
VERTEX
8
1
10
19.378830
20
4.595482
42
-0.041316
0
VERTEX
8
1
10
19.430862
20
4.919907
0
VERTEX
8
1
10
19.440887
20
4.946083
42
0.210201
0
VERTEX
8
1
10
19.578293
20
4.861847
42
0.160534
0
VERTEX
8
1
10
19.643738
20
4.878845
42
0.285258
0
VERTEX
8
1
10
19.649155
20
4.918282
0
VERTEX
8
1
10
19.638351
20
5.012161
0
VERTEX
8
1
10
19.635468
20
5.114616
0
VERTEX
8
1
10
19.639496
20
5.223473
42
-0.057872
0
VERTEX
8
1
10
19.823166
20
6.133652
0
VERTEX
8
1
10
19.833588
20
6.153053
42
0.288974
0
VERTEX
8
1
10
19.971558
20
6.026024
42
0.093586
0
SEQEND
0
POLYLINE
8
1
66
1
70
1
0
VERTEX
8
1
10
21.135193
20
5.568230
42
0.091582
0
VERTEX
8
1
10
20.974579
20
5.011078
42
0.097344
0
VERTEX
8
1
10
21.011108
20
4.671700
0
VERTEX
8
1
10
21.051254
20
4.574585
42
-0.380749
0
VERTEX
8
1
10
20.990189
20
4.581642
0
VERTEX
8
1
10
20.980698
20
4.590096
0
VERTEX
8
1
10
20.891388
20
4.687225
42
0.409851
0
VERTEX
8
1
10
20.847549
20
4.684837
0
VERTEX
8
1
10
20.833603
20
4.665855
0
VERTEX
8
1
10
20.807266
20
4.618637
42
0.085221
0
VERTEX
8
1
10
20.631729
20
3.966446
42
0.095817
0
VERTEX
8
1
10
20.659103
20
3.688271
0
VERTEX
8
1
10
20.657501
20
3.685875
42
-0.302578
0
VERTEX
8
1
10
20.565079
20
3.789398
42
0.513323
0
VERTEX
8
1
10
20.513535
20
3.796150
0
VERTEX
8
1
10
20.497528
20
3.778023
0
VERTEX
8
1
10
20.483337
20
3.753380
0
VERTEX
8
1
10
20.470886
20
3.723679
42
0.116479
0
VERTEX
8
1
10
20.437302
20
3.119354
42
0.069485
0
VERTEX
8
1
10
20.473434
20
3.016861
42
0.790737
0
VERTEX
8
1
10
20.525391
20
3.048462
42
-0.089072
0
VERTEX
8
1
10
20.481720
20
3.261871
42
-0.089484
0
VERTEX
8
1
10
20.531174
20
3.705719
42
0.252969
0
VERTEX
8
1
10
20.676712
20
3.622643
42
0.253230
0
VERTEX
8
1
10
20.733582
20
3.653763
42
0.244958
0
VERTEX
8
1
10
20.727112
20
3.687447
0
VERTEX
8
1
10
20.703690
20
3.756058
0
VERTEX
8
1
10
20.691879
20
3.835564
0
VERTEX
8
1
10
20.690216
20
3.923248
42
-0.092750
0
VERTEX
8
1
10
20.863205
20
4.593056
0
VERTEX
8
1
10
20.875427
20
4.613091
0
VERTEX
8
1
10
20.936615
20
4.546043
42
0.368683
0
VERTEX
8
1
10
21.082764
20
4.520798
42
0.155009
0
VERTEX
8
1
10
21.123322
20
4.559456
42
0.180211
0
VERTEX
8
1
10
21.120560
20
4.581154
0
VERTEX
8
1
10
21.087814
20
4.646103
0
VERTEX
8
1
10
21.053680
20
4.752190
0
VERTEX
8
1
10
21.037445
20
4.861809
0
VERTEX
8
1
10
21.036041
20
4.972122
42
-0.095521
0
VERTEX
8
1
10
21.192810
20
5.545799
42
0.861592
0
SEQEND
0
POLYLINE
8
1
66
1
70
1
0
VERTEX
8
1
10
21.216690
20
6.856003
42
0.076648
0
VERTEX
8
1
10
21.082718
20
6.225601
0
VERTEX
8
1
10
21.084427
20
6.136086
0
VERTEX
8
1
10
21.094543
20
6.049492
0
VERTEX
8
1
10
21.078384
20
6.043419
0
VERTEX
8
1
10
21.059204
20
6.050941
42
-0.139911
0
VERTEX
8
1
10
20.950378
20
6.169777
42
0.431994
0
VERTEX
8
1
10
20.904984
20
6.172821
42
0.092837
0
VERTEX
8
1
10
20.823486
20
6.028214
42
0.091414
0
VERTEX
8
1
10
20.656235
20
5.250252
42
0.017240
0
VERTEX
8
1
10
20.669662
20
5.052155
0
VERTEX
8
1
10
20.667557
20
5.050507
42
-0.170495
0
VERTEX
8
1
10
20.629669
20
5.077278
42
-0.124594
0
VERTEX
8
1
10
20.565445
20
5.191299
42
0.490566
0
VERTEX
8
1
10
20.512192
20
5.202728
42
0.099234
0
VERTEX
8
1
10
20.444397
20
5.072685
42
0.076423
0
VERTEX
8
1
10
20.298767
20
4.352264
42
0.052443
0
VERTEX
8
1
10
20.315414
20
4.176743
42
0.819759
0
VERTEX
8
1
10
20.374008
20
4.194756
42
-0.072678
0
VERTEX
8
1
10
20.368103
20
4.470085
42
-0.062482
0
VERTEX
8
1
10
20.516327
20
5.085197
0
VERTEX
8
1
10
20.530518
20
5.109512
42
0.161702
0
VERTEX
8
1
10
20.645157
20
4.990974
42
0.594612
0
VERTEX
8
1
10
20.731537
20
5.077721
0
VERTEX
8
1
10
20.720734
20
5.181442
0
VERTEX
8
1
10
20.719177
20
5.287109
42
-0.095393
0
VERTEX
8
1
10
20.906631
20
6.062218
0
VERTEX
8
1
10
20.924759
20
6.092690
42
0.183875
0
VERTEX
8
1
10
21.077377
20
5.979088
42
0.140933
0
VERTEX
8
1
10
21.152695
20
5.985626
42
0.333250
0
VERTEX
8
1
10
21.164124
20
6.021698
0
VERTEX
8
1
10
21.149887
20
6.104736
0
VERTEX
8
1
10
21.145126
20
6.192482
0
VERTEX
8
1
10
21.148270
20
6.282677
42
-0.062097
0
VERTEX
8
1
10
21.276917
20
6.844826
42
0.819517
0
SEQEND
0
POLYLINE
8
1
66
1
70
1
0
VERTEX
8
1
10
21.262390
20
7.946533
42
0.095621
0
VERTEX
8
1
10
20.886169
20
7.104630
42
0.067906
0
VERTEX
8
1
10
20.848999
20
6.659630
0
VERTEX
8
1
10
20.838242
20
6.644073
42
-0.315463
0
VERTEX
8
1
10
20.781311
20
6.704376
42
-0.006115
0
VERTEX
8
1
10
20.754898
20
6.841522
0
VERTEX
8
1
10
20.745667
20
6.872597
42
0.551678
0
VERTEX
8
1
10
20.692993
20
6.877151
0
VERTEX
8
1
10
20.663406
20
6.832329
0
VERTEX
8
1
10
20.622025
20
6.757637
42
0.080596
0
VERTEX
8
1
10
20.356812
20
5.858902
42
0.065739
0
VERTEX
8
1
10
20.359222
20
5.545593
0
VERTEX
8
1
10
20.357056
20
5.524666
42
-0.126323
0
VERTEX
8
1
10
20.241043
20
5.708824
0
VERTEX
8
1
10
20.232330
20
5.732597
42
0.604733
0
VERTEX
8
1
10
20.157349
20
5.732079
0
VERTEX
8
1
10
20.144852
20
5.716705
0
VERTEX
8
1
10
20.133972
20
5.700142
42
0.076960
0
VERTEX
8
1
10
19.976440
20
5.199348
42
0.154856
0
VERTEX
8
1
10
19.983459
20
5.132767
42
0.939030
0
VERTEX
8
1
10
20.038177
20
5.165436
0
VERTEX
8
1
10
20.037445
20
5.189514
0
VERTEX
8
1
10
20.042450
20
5.229866
42
-0.060811
0
VERTEX
8
1
10
20.179565
20
5.654060
0
VERTEX
8
1
10
20.192490
20
5.661057
42
0.128971
0
VERTEX
8
1
10
20.331284
20
5.465851
42
0.173074
0
VERTEX
8
1
10
20.421265
20
5.439423
42
0.422444
0
VERTEX
8
1
10
20.442062
20
5.479050
0
VERTEX
8
1
10
20.435684
20
5.496666
0
VERTEX
8
1
10
20.417480
20
5.574074
0
VERTEX
8
1
10
20.409531
20
5.663620
0
VERTEX
8
1
10
20.410828
20
5.763000
0
VERTEX
8
1
10
20.420364
20
5.869911
42
-0.076375
0
VERTEX
8
1
10
20.673141
20
6.720314
0
VERTEX
8
1
10
20.704498
20
6.778587
0
VERTEX
8
1
10
20.707947
20
6.757446
42
0.136375
0
VERTEX
8
1
10
20.753510
20
6.625381
42
0.235215
0
VERTEX
8
1
10
20.894638
20
6.578735
42
0.394637
0
VERTEX
8
1
10
20.915070
20
6.617287
0
VERTEX
8
1
10
20.909088
20
6.768349
0
VERTEX
8
1
10
20.918945
20
6.916710
0
VERTEX
8
1
10
20.941971
20
7.060753
42
-0.096538
0
VERTEX
8
1
10
21.316269
20
7.915878
42
0.878377
0
SEQEND
0
POLYLINE
8
1
66
1
70
1
0
VERTEX
8
1
10
21.897354
20
8.453514
42
0.062943
0
VERTEX
8
1
10
21.739807
20
7.785355
42
0.061901
0
VERTEX
8
1
10
21.748535
20
7.449203
0
VERTEX
8
1
10
21.773453
20
7.345154
0
VERTEX
8
1
10
21.812317
20
7.249077
0
VERTEX
8
1
10
21.809937
20
7.225594
42
-0.096372
0
VERTEX
8
1
10
21.658020
20
7.259445
0
VERTEX
8
1
10
21.652710
20
7.263306
42
0.678501
0
VERTEX
8
1
10
21.595856
20
7.279869
0
VERTEX
8
1
10
21.587250
20
7.261841
0
VERTEX
8
1
10
21.580093
20
7.243179
42
0.120804
0
VERTEX
8
1
10
21.595139
20
6.356865
42
0.073751
0
VERTEX
8
1
10
21.733810
20
6.050873
0
VERTEX
8
1
10
21.756912
20
6.008873
42
-0.294293
0
VERTEX
8
1
10
21.592422
20
5.997612
42
0.391308
0
VERTEX
8
1
10
21.551910
20
5.984932
42
0.072909
0
VERTEX
8
1
10
21.352951
20
5.496025
42
0.082753
0
VERTEX
8
1
10
21.339462
20
5.265495
0
VERTEX
8
1
10
21.355972
20
5.196083
0
VERTEX
8
1
10
21.385925
20
5.133255
42
0.984601
0
VERTEX
8
1
10
21.439285
20
5.165764
0
VERTEX
8
1
10
21.420563
20
5.201706
42
-0.137574
0
VERTEX
8
1
10
21.405334
20
5.438690
42
-0.075484
0
VERTEX
8
1
10
21.558212
20
5.865654
0
VERTEX
8
1
10
21.587631
20
5.921234
0
VERTEX
8
1
10
21.601349
20
5.927315
42
0.338794
0
VERTEX
8
1
10
21.829987
20
5.998810
42
0.260164
0
VERTEX
8
1
10
21.826752
20
6.029076
42
-0.092642
0
VERTEX
8
1
10
21.662827
20
6.348145
0
VERTEX
8
1
10
21.636292
20
6.446701
42
-0.097547
0
VERTEX
8
1
10
21.629044
20
7.176460
0
VERTEX
8
1
10
21.640121
20
7.198776
0
VERTEX
8
1
10
21.657333
20
7.191437
42
0.090552
0
VERTEX
8
1
10
21.897491
20
7.163147
42
0.545134
0
VERTEX
8
1
10
21.904251
20
7.217583
0
VERTEX
8
1
10
21.855362
20
7.304253
0
VERTEX
8
1
10
21.822388
20
7.402100
0
VERTEX
8
1
10
21.803391
20
7.508324
0
VERTEX
8
1
10
21.796432
20
7.620125
0
VERTEX
8
1
10
21.799500
20
7.734718
42
-0.063686
0
VERTEX
8
1
10
21.957489
20
8.441513
42
0.822523
0
SEQEND
0
POLYLINE
8
1
66
1
70
1
0
VERTEX
8
1
10
22.684372
20
8.588791
0
VERTEX
8
1
10
22.660370
20
8.612625
0
VERTEX
8
1
10
22.615021
20
8.680771
0
VERTEX
8
1
10
22.587936
20
8.758553
0
VERTEX
8
1
10
22.576080
20
8.842300
42
-0.094044
0
VERTEX
8
1
10
22.647964
20
9.251213
0
VERTEX
8
1
10
22.665359
20
9.297340
42
0.885013
0
VERTEX
8
1
10
22.605988
20
9.315323
42
0.087617
0
VERTEX
8
1
10
22.511963
20
8.896370
42
0.121904
0
VERTEX
8
1
10
22.565414
20
8.639992
0
VERTEX
8
1
10
22.607193
20
8.577148
42
-0.374705
0
VERTEX
8
1
10
22.462967
20
8.647202
0
VERTEX
8
1
10
22.456436
20
8.658623
42
0.501684
0
VERTEX
8
1
10
22.409103
20
8.676071
0
VERTEX
8
1
10
22.384384
20
8.650864
0
VERTEX
8
1
10
22.358185
20
8.604797
0
VERTEX
8
1
10
22.334152
20
8.542358
42
0.120743
0
VERTEX
8
1
10
22.304947
20
7.992432
0
VERTEX
8
1
10
22.330841
20
7.899620
0
VERTEX
8
1
10
22.363464
20
7.822380
42
-0.156130
0
VERTEX
8
1
10
22.218811
20
7.913582
42
0.782456
0
VERTEX
8
1
10
22.178101
20
7.868599
42
0.199655
0
VERTEX
8
1
10
22.378006
20
7.758804
42
0.223132
0
VERTEX
8
1
10
22.439560
20
7.787109
42
0.253919
0
VERTEX
8
1
10
22.439743
20
7.817757
42
-0.119247
0
VERTEX
8
1
10
22.351624
20
8.087311
42
-0.116015
0
VERTEX
8
1
10
22.414566
20
8.581032
0
VERTEX
8
1
10
22.426743
20
8.586914
42
0.426849
0
VERTEX
8
1
10
22.687775
20
8.548439
42
0.367166
0
SEQEND
0
POLYLINE
8
1
66
1
70
1
0
VERTEX
8
1
10
22.799927
20
10.199791
42
0.053359
0
VERTEX
8
1
10
22.695313
20
10.313507
42
0.006260
0
VERTEX
8
1
10
22.261673
20
10.720871
0
VERTEX
8
1
10
22.260742
20
10.726311
0
VERTEX
8
1
10
22.302856
20
11.054214
0
VERTEX
8
1
10
22.608826
20
11.283279
0
VERTEX
8
1
10
22.716888
20
11.217636
42
0.951435
0
VERTEX
8
1
10
22.740189
20
11.275841
0
VERTEX
8
1
10
22.619034
20
11.349976
42
0.301587
0
VERTEX
8
1
10
22.583847
20
11.343071
0
VERTEX
8
1
10
22.250168
20
11.092049
42
0.160342
0
VERTEX
8
1
10
22.242310
20
11.074066
0
VERTEX
8
1
10
22.196014
20
10.707687
42
0.189787
0
VERTEX
8
1
10
22.206055
20
10.687080
42
-0.008378
0
VERTEX
8
1
10
22.678345
20
10.242325
0
VERTEX
8
1
10
22.691345
20
10.225182
42
-0.013753
0
VERTEX
8
1
10
22.344254
20
10.333397
42
0.628821
0
VERTEX
8
1
10
22.310440
20
10.286659
42
-0.010688
0
VERTEX
8
1
10
22.469360
20
9.711243
0
VERTEX
8
1
10
22.463257
20
9.710152
42
-0.005764
0
VERTEX
8
1
10
22.031036
20
10.504951
42
0.325940
0
VERTEX
8
1
10
21.994339
20
10.508568
0
VERTEX
8
1
10
21.393753
20
10.179688
42
0.601655
0
VERTEX
8
1
10
21.402435
20
10.124519
42
-0.040582
0
VERTEX
8
1
10
21.703354
20
9.941589
0
VERTEX
8
1
10
21.702576
20
9.935211
0
VERTEX
8
1
10
21.682358
20
9.934837
42
-0.030568
0
VERTEX
8
1
10
21.278091
20
9.981758
42
0.252525
0
VERTEX
8
1
10
21.254318
20
9.963867
42
-0.008032
0
VERTEX
8
1
10
20.869034
20
9.173882
0
VERTEX
8
1
10
20.854492
20
9.155441
42
-0.008234
0
VERTEX
8
1
10
21.047379
20
10.035629
42
0.419443
0
VERTEX
8
1
10
21.017258
20
10.068459
0
VERTEX
8
1
10
20.560028
20
10.086464
42
0.378616
0
VERTEX
8
1
10
20.532913
20
10.054741
42
0.043961
0
VERTEX
8
1
10
20.529861
20
9.855576
0
VERTEX
8
1
10
20.527863
20
9.848358
42
-0.144374
0
VERTEX
8
1
10
20.394012
20
9.726646
42
-0.176108
0
VERTEX
8
1
10
20.308975
20
9.740669
42
-0.047444
0
VERTEX
8
1
10
20.142380
20
9.842110
42
0.122947
0
VERTEX
8
1
10
20.121979
20
9.842659
0
VERTEX
8
1
10
19.280563
20
9.802887
42
0.121023
0
VERTEX
8
1
10
19.257950
20
9.790245
0
VERTEX
8
1
10
19.143188
20
9.713448
0
VERTEX
8
1
10
19.165817
20
9.830910
42
0.327344
0
VERTEX
8
1
10
19.141449
20
9.861931
0
VERTEX
8
1
10
18.902054
20
9.979141
42
0.227775
0
VERTEX
8
1
10
18.872314
20
9.972763
0
VERTEX
8
1
10
18.764999
20
9.914406
0
VERTEX
8
1
10
18.763550
20
9.915543
42
0.149725
0
VERTEX
8
1
10
18.704269
20
10.138229
0
VERTEX
8
1
10
18.692871
20
10.146355
0
VERTEX
8
1
10
18.654984
20
10.165291
0
VERTEX
8
1
10
18.599426
20
10.204216
0
VERTEX
8
1
10
18.541122
20
10.255569
42
-0.065652
0
VERTEX
8
1
10
18.095016
20
10.859558
42
0.669239
0
VERTEX
8
1
10
18.026291
20
10.847511
42
0.056233
0
VERTEX
8
1
10
18.012360
20
10.807274
0
VERTEX
8
1
10
17.953613
20
10.556099
0
VERTEX
8
1
10
17.930862
20
10.479156
42
-0.046521
0
VERTEX
8
1
10
17.883759
20
10.684074
42
-0.012793
0
VERTEX
8
1
10
17.810791
20
11.149780
42
0.386876
0
VERTEX
8
1
10
17.771729
20
11.165283
42
-0.050745
0
VERTEX
8
1
10
17.312607
20
11.025749
42
-0.082354
0
VERTEX
8
1
10
17.227921
20
11.023804
42
-0.076140
0
VERTEX
8
1
10
17.310013
20
11.100586
42
-0.059889
0
VERTEX
8
1
10
17.668549
20
11.307304
42
0.591687
0
VERTEX
8
1
10
17.710754
20
11.379112
0
VERTEX
8
1
10
17.705154
20
11.395744
42
0.069174
0
VERTEX
8
1
10
17.602448
20
11.553673
42
-0.002637
0
VERTEX
8
1
10
17.487915
20
11.628891
42
-0.020050
0
VERTEX
8
1
10
17.128418
20
11.890991
0
VERTEX
8
1
10
17.101929
20
11.913864
0
VERTEX
8
1
10
17.075989
20
11.937347
0
VERTEX
8
1
10
17.091095
20
11.937981
0
VERTEX
8
1
10
17.127365
20
11.926041
42
-0.021690
0
VERTEX
8
1
10
17.631882
20
11.710838
42
0.474934
0
VERTEX
8
1
10
17.705917
20
11.754402
42
0.156336
0
VERTEX
8
1
10
17.679489
20
11.948204
42
0.069841
0
VERTEX
8
1
10
17.556229
20
12.156708
0
VERTEX
8
1
10
17.544693
20
12.167580
42
0.017990
0
VERTEX
8
1
10
17.275146
20
12.377670
42
0.159383
0
VERTEX
8
1
10
17.255676
20
12.376457
42
-0.013031
0
VERTEX
8
1
10
16.070679
20
11.868355
42
-0.019505
0
VERTEX
8
1
10
15.799881
20
11.776443
0
VERTEX
8
1
10
15.824310
20
11.804787
42
-0.023282
0
VERTEX
8
1
10
16.292969
20
12.108871
42
-0.008579
0
VERTEX
8
1
10
17.068497
20
12.560989
42
0.164985
0
VERTEX
8
1
10
17.116882
20
12.636459
42
0.065419
0
VERTEX
8
1
10
17.144119
20
12.755661
42
0.012232
0
VERTEX
8
1
10
17.213501
20
13.131012
42
-0.065288
0
VERTEX
8
1
10
17.262329
20
13.220238
42
-0.025521
0
VERTEX
8
1
10
17.460129
20
13.475624
42
0.547410
0
VERTEX
8
1
10
17.436996
20
13.522949
42
-0.011009
0
VERTEX
8
1
10
16.683868
20
13.580620
42
-0.061261
0
VERTEX
8
1
10
16.401932
20
13.650681
42
-0.035848
0
VERTEX
8
1
10
16.713257
20
13.688446
42
-0.015226
0
VERTEX
8
1
10
17.323563
20
13.717682
42
0.098390
0
VERTEX
8
1
10
17.564270
20
13.787292
42
0.117758
0
VERTEX
8
1
10
17.571945
20
13.801033
42
-0.010968
0
VERTEX
8
1
10
17.729599
20
14.182327
42
-0.085717
0
VERTEX
8
1
10
17.907898
20
14.383286
42
-0.030766
0
VERTEX
8
1
10
18.126816
20
14.554451
42
0.135438
0
VERTEX
8
1
10
18.206589
20
14.712616
42
0.056387
0
VERTEX
8
1
10
18.251236
20
15.059250
42
0.855453
0
VERTEX
8
1
10
18.189499
20
15.057121
42
-0.075371
0
VERTEX
8
1
10
18.127426
20
14.670319
42
-0.106256
0
VERTEX
8
1
10
18.087234
20
14.602692
42
0.060878
0
VERTEX
8
1
10
17.731750
20
14.295052
42
0.049005
0
VERTEX
8
1
10
17.673096
20
14.209030
42
0.009618
0
VERTEX
8
1
10
17.515732
20
13.831329
42
-0.084877
0
VERTEX
8
1
10
17.296143
20
13.778633
42
0.024540
0
VERTEX
8
1
10
16.481140
20
13.727478
0
VERTEX
8
1
10
16.437531
20
13.720360
42
0.134860
0
VERTEX
8
1
10
16.319427
20
13.680969
42
0.521048
0
VERTEX
8
1
10
16.333374
20
13.611412
42
0.078567
0
VERTEX
8
1
10
16.720062
20
13.513100
42
0.009342
0
VERTEX
8
1
10
17.225433
20
13.473892
0
VERTEX
8
1
10
17.366852
20
13.461533
42
0.044741
0
VERTEX
8
1
10
17.171982
20
13.190987
0
VERTEX
8
1
10
17.160889
20
13.166069
0
VERTEX
8
1
10
17.151642
20
13.140411
42
-0.008715
0
VERTEX
8
1
10
17.067093
20
12.683311
42
-0.092664
0
VERTEX
8
1
10
17.036133
20
12.615036
0
VERTEX
8
1
10
17.031128
20
12.610725
0
VERTEX
8
1
10
17.025558
20
12.607170
42
0.014545
0
VERTEX
8
1
10
15.965302
20
11.977882
42
0.042020
0
VERTEX
8
1
10
15.736023
20
11.810165
0
VERTEX
8
1
10
15.714615
20
11.789070
0
VERTEX
8
1
10
15.702850
20
11.773346
42
0.618623
0
VERTEX
8
1
10
15.742020
20
11.706970
0
VERTEX
8
1
10
15.837738
20
11.724152
42
0.028549
0
VERTEX
8
1
10
16.384872
20
11.927353
42
0.009960
0
VERTEX
8
1
10
17.244461
20
12.302666
0
VERTEX
8
1
10
17.275970
20
12.301407
42
-0.015990
0
VERTEX
8
1
10
17.513687
20
12.110283
42
-0.078888
0
VERTEX
8
1
10
17.641159
20
11.873146
42
-0.091616
0
VERTEX
8
1
10
17.645706
20
11.772209
42
0.032514
0
VERTEX
8
1
10
17.094986
20
12.001740
0
VERTEX
8
1
10
17.066269
20
12.008362
0
VERTEX
8
1
10
17.037231
20
12.013374
42
0.738286
0
VERTEX
8
1
10
16.989182
20
11.942688
42
0.069666
0
VERTEX
8
1
10
17.127960
20
11.810806
42
0.020484
0
VERTEX
8
1
10
17.566605
20
11.501747
42
-0.046957
0
VERTEX
8
1
10
17.647751
20
11.371811
0
VERTEX
8
1
10
17.645508
20
11.365547
0
VERTEX
8
1
10
17.628967
20
11.359573
42
0.064439
0
VERTEX
8
1
10
17.223495
20
11.110344
42
0.129297
0
VERTEX
8
1
10
17.163544
20
11.031975
42
0.412808
0
VERTEX
8
1
10
17.200241
20
10.966888
0
VERTEX
8
1
10
17.229843
20
10.960373
42
0.077534
0
VERTEX
8
1
10
17.456833
20
10.992683
42
0.024181
0
VERTEX
8
1
10
17.738617
20
11.085358
0
VERTEX
8
1
10
17.757767
20
11.086014
42
0.022465
0
VERTEX
8
1
10
17.854523
20
10.516586
0
VERTEX
8
1
10
17.866608
20
10.475288
0
VERTEX
8
1
10
17.880447
20
10.434540
0
VERTEX
8
1
10
17.887085
20
10.420753
42
0.678238
0
VERTEX
8
1
10
17.970123
20
10.418571
42
0.079427
0
VERTEX
8
1
10
18.013443
20
10.537895
0
VERTEX
8
1
10
18.068604
20
10.775200
42
0.046155
0
VERTEX
8
1
10
18.437210
20
10.271973
42
0.076442
0
VERTEX
8
1
10
18.661224
20
10.089165
42
-0.155751
0
VERTEX
8
1
10
18.696442
20
9.852646
42
0.539765
0
VERTEX
8
1
10
18.744797
20
9.832268
0
VERTEX
8
1
10
18.894974
20
9.913628
0
VERTEX
8
1
10
19.098541
20
9.813393
0
VERTEX
8
1
10
19.099030
20
9.812103
0
VERTEX
8
1
10
19.066299
20
9.645981
42
0.614917
0
VERTEX
8
1
10
19.115524
20
9.619728
0
VERTEX
8
1
10
19.297379
20
9.741432
0
VERTEX
8
1
10
20.124313
20
9.780190
42
0.106272
0
VERTEX
8
1
10
20.340439
20
9.665466
42
0.242183
0
VERTEX
8
1
10
20.457230
20
9.691101
42
0.136006
0
VERTEX
8
1
10
20.585190
20
9.823486
42
0.131168
0
VERTEX
8
1
10
20.590515
20
9.877350
42
-0.039444
0
VERTEX
8
1
10
20.592896
20
10.021255
0
VERTEX
8
1
10
20.598038
20
10.022850
0
VERTEX
8
1
10
20.972137
20
10.007729
0
VERTEX
8
1
10
20.976517
20
10.004837
42
0.010172
0
VERTEX
8
1
10
20.785233
20
9.124344
42
0.028002
0
VERTEX
8
1
10
20.772751
20
9.011948
42
0.715638
0
VERTEX
8
1
10
20.832199
20
8.989395
42
0.058763
0
VERTEX
8
1
10
20.913651
20
9.123840
42
0.008174
0
VERTEX
8
1
10
21.299805
20
9.913773
0
VERTEX
8
1
10
21.335388
20
9.910156
42
0.041531
0
VERTEX
8
1
10
21.689606
20
9.873962
42
0.162106
0
VERTEX
8
1
10
21.774338
20
9.894409
42
0.413348
0
VERTEX
8
1
10
21.772415
20
9.958824
42
0.089087
0
VERTEX
8
1
10
21.703964
20
10.019531
42
0.025634
0
VERTEX
8
1
10
21.478271
20
10.155006
0
VERTEX
8
1
10
21.992615
20
10.436371
0
VERTEX
8
1
10
21.999847
20
10.434204
42
0.009879
0
VERTEX
8
1
10
22.436615
20
9.631958
42
0.027845
0
VERTEX
8
1
10
22.498215
20
9.542198
42
0.724344
0
VERTEX
8
1
10
22.558578
20
9.568695
42
0.058058
0
VERTEX
8
1
10
22.534286
20
9.708572
42
0.009424
0
VERTEX
8
1
10
22.386520
20
10.249268
0
VERTEX
8
1
10
22.444382
20
10.234283
42
0.030069
0
VERTEX
8
1
10
22.739426
20
10.150887
0
VERTEX
8
1
10
22.757339
20
10.149323
42
0.690368
0
SEQEND
0
POLYLINE
8
1
66
1
70
1
0
VERTEX
8
1
10
17.532501
20
13.161606
42
0.901411
0
VERTEX
8
1
10
17.475311
20
13.185867
42
0.067936
0
VERTEX
8
1
10
17.372650
20
12.915169
42
0.174938
0
VERTEX
8
1
10
17.382645
20
12.850624
0
VERTEX
8
1
10
17.389099
20
12.828911
42
-0.016027
0
VERTEX
8
1
10
17.454254
20
12.461525
42
0.745670
0
VERTEX
8
1
10
17.512985
20
12.473701
0
VERTEX
8
1
10
17.568466
20
12.848473
42
0.974689
0
VERTEX
8
1
10
17.506424
20
12.855751
42
-0.003837
0
VERTEX
8
1
10
17.480911
20
12.688675
42
0.043937
0
VERTEX
8
1
10
17.432938
20
12.890556
0
VERTEX
8
1
10
17.432755
20
12.902626
0
VERTEX
8
1
10
17.435959
20
12.920815
42
-0.049051
0
SEQEND
0
POLYLINE
8
1
66
1
70
1
0
VERTEX
8
1
10
22.962875
20
11.626785
0
VERTEX
8
1
10
22.810883
20
11.543442
42
0.464047
0
VERTEX
8
1
10
22.807144
20
11.495285
0
VERTEX
8
1
10
22.893158
20
11.389145
42
0.897542
0
VERTEX
8
1
10
22.936386
20
11.433777
0
VERTEX
8
1
10
22.876984
20
11.508598
0
VERTEX
8
1
10
22.992828
20
11.571968
42
0.976214
0
SEQEND
0
ENDSEC
0
EOF
