  0
SECTION
  2
HEADER
  9
$ACADVER
  1
AC1021
  9
$ACADMAINTVER
 70
    25
  9
$DWGCODEPAGE
  3
ANSI_1252
  9
$INSBASE
 10
0.0
 20
0.0
 30
0.0
  9
$EXTMIN
 10
-8.193098425196851
 20
-2.408795275590551
 30
0.0
  9
$EXTMAX
 10
8.369645669291339
 20
8.81144094488189
 30
0.0
  9
$LIMMIN
 10
0.0
 20
0.0
  9
$LIMMAX
 10
12.0
 20
9.0
  9
$ORTHOMODE
 70
     0
  9
$REGENMODE
 70
     1
  9
$FILLMODE
 70
     1
  9
$QTEXTMODE
 70
     0
  9
$MIRRTEXT
 70
     1
  9
$LTSCALE
 40
1.0
  9
$ATTMODE
 70
     1
  9
$TEXTSIZE
 40
0.2
  9
$TRACEWID
 40
0.05
  9
$TEXTSTYLE
  7
Standard
  9
$CLAYER
  8
0
  9
$CELTYPE
  6
ByLayer
  9
$CECOLOR
 62
   256
  9
$CELTSCALE
 40
1.0
  9
$DISPSILH
 70
     0
  9
$DIMSCALE
 40
1.0
  9
$DIMASZ
 40
0.18
  9
$DIMEXO
 40
0.0625
  9
$DIMDLI
 40
0.38
  9
$DIMRND
 40
0.0
  9
$DIMDLE
 40
0.0
  9
$DIMEXE
 40
0.18
  9
$DIMTP
 40
0.0
  9
$DIMTM
 40
0.0
  9
$DIMTXT
 40
0.18
  9
$DIMCEN
 40
0.09
  9
$DIMTSZ
 40
0.0
  9
$DIMTOL
 70
     0
  9
$DIMLIM
 70
     0
  9
$DIMTIH
 70
     1
  9
$DIMTOH
 70
     1
  9
$DIMSE1
 70
     0
  9
$DIMSE2
 70
     0
  9
$DIMTAD
 70
     0
  9
$DIMZIN
 70
     0
  9
$DIMBLK
  1

  9
$DIMASO
 70
     1
  9
$DIMSHO
 70
     1
  9
$DIMPOST
  1

  9
$DIMAPOST
  1

  9
$DIMALT
 70
     0
  9
$DIMALTD
 70
     2
  9
$DIMALTF
 40
25.4
  9
$DIMLFAC
 40
1.0
  9
$DIMTOFL
 70
     0
  9
$DIMTVP
 40
0.0
  9
$DIMTIX
 70
     0
  9
$DIMSOXD
 70
     0
  9
$DIMSAH
 70
     0
  9
$DIMBLK1
  1

  9
$DIMBLK2
  1

  9
$DIMSTYLE
  2
Standard
  9
$DIMCLRD
 70
     0
  9
$DIMCLRE
 70
     0
  9
$DIMCLRT
 70
     0
  9
$DIMTFAC
 40
1.0
  9
$DIMGAP
 40
0.09
  9
$DIMJUST
 70
     0
  9
$DIMSD1
 70
     0
  9
$DIMSD2
 70
     0
  9
$DIMTOLJ
 70
     1
  9
$DIMTZIN
 70
     0
  9
$DIMALTZ
 70
     0
  9
$DIMALTTZ
 70
     0
  9
$DIMUPT
 70
     0
  9
$DIMDEC
 70
     4
  9
$DIMTDEC
 70
     4
  9
$DIMALTU
 70
     2
  9
$DIMALTTD
 70
     2
  9
$DIMTXSTY
  7
Standard
  9
$DIMAUNIT
 70
     0
  9
$DIMADEC
 70
     0
  9
$DIMALTRND
 40
0.0
  9
$DIMAZIN
 70
     0
  9
$DIMDSEP
 70
    46
  9
$DIMATFIT
 70
     3
  9
$DIMFRAC
 70
     0
  9
$DIMLDRBLK
  1

  9
$DIMLUNIT
 70
     2
  9
$DIMLWD
 70
    -2
  9
$DIMLWE
 70
    -2
  9
$DIMTMOVE
 70
     0
  9
$DIMFXL
 40
1.0
  9
$DIMFXLON
 70
     0
  9
$DIMJOGANG
 40
0.7853981633974483
  9
$DIMTFILL
 70
     0
  9
$DIMTFILLCLR
 70
     0
  9
$DIMARCSYM
 70
     0
  9
$DIMLTYPE
  6

  9
$DIMLTEX1
  6

  9
$DIMLTEX2
  6

  9
$LUNITS
 70
     2
  9
$LUPREC
 70
     4
  9
$SKETCHINC
 40
0.1
  9
$FILLETRAD
 40
0.5
  9
$AUNITS
 70
     0
  9
$AUPREC
 70
     0
  9
$MENU
  1
.
  9
$ELEVATION
 40
0.0
  9
$PELEVATION
 40
0.0
  9
$THICKNESS
 40
0.0
  9
$LIMCHECK
 70
     0
  9
$CHAMFERA
 40
0.0
  9
$CHAMFERB
 40
0.0
  9
$CHAMFERC
 40
0.0
  9
$CHAMFERD
 40
0.0
  9
$SKPOLY
 70
     0
  9
$TDCREATE
 40
2457814.530891157
  9
$TDUCREATE
 40
2457814.739224491
  9
$TDUPDATE
 40
2457814.530891157
  9
$TDUUPDATE
 40
2457814.739224491
  9
$TDINDWG
 40
0.0000000116
  9
$TDUSRTIMER
 40
0.0000000116
  9
$USRTIMER
 70
     1
  9
$ANGBASE
 50
0.0
  9
$ANGDIR
 70
     0
  9
$PDMODE
 70
     0
  9
$PDSIZE
 40
0.0
  9
$PLINEWID
 40
0.0
  9
$SPLFRAME
 70
     0
  9
$SPLINETYPE
 70
     6
  9
$SPLINESEGS
 70
     8
  9
$HANDSEED
  5
BF
  9
$SURFTAB1
 70
     6
  9
$SURFTAB2
 70
     6
  9
$SURFTYPE
 70
     6
  9
$SURFU
 70
     6
  9
$SURFV
 70
     6
  9
$UCSBASE
  2

  9
$UCSNAME
  2

  9
$UCSORG
 10
0.0
 20
0.0
 30
0.0
  9
$UCSXDIR
 10
1.0
 20
0.0
 30
0.0
  9
$UCSYDIR
 10
0.0
 20
1.0
 30
0.0
  9
$UCSORTHOREF
  2

  9
$UCSORTHOVIEW
 70
     0
  9
$UCSORGTOP
 10
0.0
 20
0.0
 30
0.0
  9
$UCSORGBOTTOM
 10
0.0
 20
0.0
 30
0.0
  9
$UCSORGLEFT
 10
0.0
 20
0.0
 30
0.0
  9
$UCSORGRIGHT
 10
0.0
 20
0.0
 30
0.0
  9
$UCSORGFRONT
 10
0.0
 20
0.0
 30
0.0
  9
$UCSORGBACK
 10
0.0
 20
0.0
 30
0.0
  9
$PUCSBASE
  2

  9
$PUCSNAME
  2

  9
$PUCSORG
 10
0.0
 20
0.0
 30
0.0
  9
$PUCSXDIR
 10
1.0
 20
0.0
 30
0.0
  9
$PUCSYDIR
 10
0.0
 20
1.0
 30
0.0
  9
$PUCSORTHOREF
  2

  9
$PUCSORTHOVIEW
 70
     0
  9
$PUCSORGTOP
 10
0.0
 20
0.0
 30
0.0
  9
$PUCSORGBOTTOM
 10
0.0
 20
0.0
 30
0.0
  9
$PUCSORGLEFT
 10
0.0
 20
0.0
 30
0.0
  9
$PUCSORGRIGHT
 10
0.0
 20
0.0
 30
0.0
  9
$PUCSORGFRONT
 10
0.0
 20
0.0
 30
0.0
  9
$PUCSORGBACK
 10
0.0
 20
0.0
 30
0.0
  9
$USERI1
 70
     0
  9
$USERI2
 70
     0
  9
$USERI3
 70
     0
  9
$USERI4
 70
     0
  9
$USERI5
 70
     0
  9
$USERR1
 40
0.0
  9
$USERR2
 40
0.0
  9
$USERR3
 40
0.0
  9
$USERR4
 40
0.0
  9
$USERR5
 40
0.0
  9
$WORLDVIEW
 70
     1
  9
$SHADEDGE
 70
     3
  9
$SHADEDIF
 70
    70
  9
$TILEMODE
 70
     1
  9
$MAXACTVP
 70
    64
  9
$PINSBASE
 10
0.0
 20
0.0
 30
0.0
  9
$PLIMCHECK
 70
     0
  9
$PEXTMIN
 10
1.000000000000000E+20
 20
1.000000000000000E+20
 30
1.000000000000000E+20
  9
$PEXTMAX
 10
-1.000000000000000E+20
 20
-1.000000000000000E+20
 30
-1.000000000000000E+20
  9
$PLIMMIN
 10
0.0
 20
0.0
  9
$PLIMMAX
 10
12.0
 20
9.0
  9
$UNITMODE
 70
     0
  9
$VISRETAIN
 70
     1
  9
$PLINEGEN
 70
     0
  9
$PSLTSCALE
 70
     1
  9
$TREEDEPTH
 70
  3020
  9
$CMLSTYLE
  2
Standard
  9
$CMLJUST
 70
     0
  9
$CMLSCALE
 40
1.0
  9
$PROXYGRAPHICS
 70
     1
  9
$MEASUREMENT
 70
     0
  9
$CELWEIGHT
370
    -1
  9
$ENDCAPS
280
     0
  9
$JOINSTYLE
280
     0
  9
$LWDISPLAY
290
     0
  9
$INSUNITS
 70
     1
  9
$HYPERLINKBASE
  1

  9
$STYLESHEET
  1

  9
$XEDIT
290
     1
  9
$CEPSNTYPE
380
     0
  9
$PSTYLEMODE
290
     1
  9
$FINGERPRINTGUID
  2
{AAF3941F-79CF-4D12-8544-8F0444514CA9}
  9
$VERSIONGUID
  2
{FAEB1C32-E019-11D5-929B-00C0DF256EC4}
  9
$EXTNAMES
290
     1
  9
$PSVPSCALE
 40
0.0
  9
$OLESTARTUP
290
     0
  9
$SORTENTS
280
   127
  9
$INDEXCTL
280
     0
  9
$HIDETEXT
280
     1
  9
$XCLIPFRAME
290
     0
  9
$HALOGAP
280
     0
  9
$OBSCOLOR
 70
   257
  9
$OBSLTYPE
280
     0
  9
$INTERSECTIONDISPLAY
280
     0
  9
$INTERSECTIONCOLOR
 70
   257
  9
$DIMASSOC
280
     2
  9
$PROJECTNAME
  1

  9
$CAMERADISPLAY
290
     0
  9
$LENSLENGTH
 40
50.0
  9
$CAMERAHEIGHT
 40
0.0
  9
$STEPSPERSEC
 40
2.0
  9
$STEPSIZE
 40
6.0
  9
$3DDWFPREC
 40
2.0
  9
$PSOLWIDTH
 40
0.25
  9
$PSOLHEIGHT
 40
4.0
  9
$LOFTANG1
 40
1.570796326794897
  9
$LOFTANG2
 40
1.570796326794897
  9
$LOFTMAG1
 40
0.0
  9
$LOFTMAG2
 40
0.0
  9
$LOFTPARAM
 70
     7
  9
$LOFTNORMALS
280
     1
  9
$LATITUDE
 40
37.795
  9
$LONGITUDE
 40
-122.394
  9
$NORTHDIRECTION
 40
0.0
  9
$TIMEZONE
 70
 -8000
  9
$LIGHTGLYPHDISPLAY
280
     1
  9
$TILEMODELIGHTSYNCH
280
     1
  9
$CMATERIAL
347
44
  9
$SOLIDHIST
280
     0
  9
$SHOWHIST
280
     1
  9
$DWFFRAME
280
     2
  9
$DGNFRAME
280
     2
  9
$REALWORLDSCALE
290
     1
  9
$INTERFERECOLOR
 62
   256
  9
$CSHADOW
280
     0
  9
$SHADOWPLANELOCATION
 40
0.0
  0
ENDSEC
  0
SECTION
  2
CLASSES
  0
CLASS
  1
ACDBDICTIONARYWDFLT
  2
AcDbDictionaryWithDefault
  3
ObjectDBX Classes
 90
        0
 91
        4
280
     0
281
     0
  0
CLASS
  1
VISUALSTYLE
  2
AcDbVisualStyle
  3
ObjectDBX Classes
 90
     4095
 91
        4
280
     0
281
     0
  0
CLASS
  1
MATERIAL
  2
AcDbMaterial
  3
ObjectDBX Classes
 90
     1153
 91
        4
280
     0
281
     0
  0
CLASS
  1
SCALE
  2
AcDbScale
  3
ObjectDBX Classes
 90
     1153
 91
        4
280
     0
281
     0
  0
CLASS
  1
TABLESTYLE
  2
AcDbTableStyle
  3
ObjectDBX Classes
 90
     4095
 91
        4
280
     0
281
     0
  0
CLASS
  1
MLEADERSTYLE
  2
AcDbMLeaderStyle
  3
ACDB_MLEADERSTYLE_CLASS
 90
     4095
 91
        4
280
     0
281
     0
  0
CLASS
  1
SUN
  2
AcDbSun
  3
SCENEOE
 90
     1153
 91
        4
280
     0
281
     0
  0
CLASS
  1
DICTIONARYVAR
  2
AcDbDictionaryVar
  3
ObjectDBX Classes
 90
        0
 91
        4
280
     0
281
     0
  0
CLASS
  1
CELLSTYLEMAP
  2
AcDbCellStyleMap
  3
ObjectDBX Classes
 90
     1152
 91
        4
280
     0
281
     0
  0
ENDSEC
  0
SECTION
  2
TABLES
  0
TABLE
  2
VPORT
  5
8
330
0
100
AcDbSymbolTable
 70
     1
  0
VPORT
  5
29
330
8
100
AcDbSymbolTableRecord
100
AcDbViewportTableRecord
  2
*Active
 70
     0
 10
0.0
 20
0.0
 11
1.0
 21
1.0
 12
10.42990654205607
 22
4.5
 13
0.0
 23
0.0
 14
0.5
 24
0.5
 15
0.5
 25
0.5
 16
0.0
 26
0.0
 36
1.0
 17
0.0
 27
0.0
 37
0.0
 40
9.0
 41
1.972972972850329
 42
50.0
 43
0.0
 44
0.0
 50
0.0
 51
0.0
 71
     0
 72
   100
 73
     1
 74
     3
 75
     0
 76
     0
 77
     0
 78
     0
281
     0
 65
     1
110
0.0
120
0.0
130
0.0
111
1.0
121
0.0
131
0.0
112
0.0
122
1.0
132
0.0
 79
     0
146
0.0
 60
     3
 61
     5
292
     1
282
     1
141
0.0
142
0.0
 63
   250
361
6D
  0
ENDTAB
  0
TABLE
  2
LTYPE
  5
5
330
0
100
AcDbSymbolTable
 70
     1
  0
LTYPE
  5
14
330
5
100
AcDbSymbolTableRecord
100
AcDbLinetypeTableRecord
  2
ByBlock
 70
     0
  3

 72
    65
 73
     0
 40
0.0
  0
LTYPE
  5
15
330
5
100
AcDbSymbolTableRecord
100
AcDbLinetypeTableRecord
  2
ByLayer
 70
     0
  3

 72
    65
 73
     0
 40
0.0
  0
LTYPE
  5
16
330
5
100
AcDbSymbolTableRecord
100
AcDbLinetypeTableRecord
  2
Continuous
 70
     0
  3
Solid line
 72
    65
 73
     0
 40
0.0
  0
ENDTAB
  0
TABLE
  2
LAYER
  5
2
330
0
100
AcDbSymbolTable
 70
     2
  0
LAYER
  5
10
330
2
100
AcDbSymbolTableRecord
100
AcDbLayerTableRecord
  2
0
 70
     0
 62
     7
  6
Continuous
370
    -3
390
F
347
46
  0
LAYER
  5
6F
330
2
100
AcDbSymbolTableRecord
100
AcDbLayerTableRecord
  2
Layer 1
 70
     0
 62
     7
  6
Continuous
370
    -3
390
F
347
46
  0
ENDTAB
  0
TABLE
  2
STYLE
  5
3
330
0
100
AcDbSymbolTable
 70
     1
  0
STYLE
  5
11
330
3
100
AcDbSymbolTableRecord
100
AcDbTextStyleTableRecord
  2
Standard
 70
     0
 40
0.0
 41
1.0
 50
0.0
 71
     0
 42
0.2
  3
txt
  4

  0
ENDTAB
  0
TABLE
  2
VIEW
  5
6
330
0
100
AcDbSymbolTable
 70
     0
  0
ENDTAB
  0
TABLE
  2
UCS
  5
7
330
0
100
AcDbSymbolTable
 70
     0
  0
ENDTAB
  0
TABLE
  2
APPID
  5
9
330
0
100
AcDbSymbolTable
 70
     3
  0
APPID
  5
12
330
9
100
AcDbSymbolTableRecord
100
AcDbRegAppTableRecord
  2
ACAD
 70
     0
  0
APPID
  5
6E
330
9
100
AcDbSymbolTableRecord
100
AcDbRegAppTableRecord
  2
ODA
 70
     0
  0
APPID
  5
B7
330
9
100
AcDbSymbolTableRecord
100
AcDbRegAppTableRecord
  2
ACAD_MLEADERVER
 70
     0
  0
ENDTAB
  0
TABLE
  2
DIMSTYLE
  5
A
330
0
100
AcDbSymbolTable
 70
     1
100
AcDbDimStyleTable
  0
DIMSTYLE
105
27
330
A
100
AcDbSymbolTableRecord
100
AcDbDimStyleTableRecord
  2
Standard
 70
     0
178
     0
340
11
  0
ENDTAB
  0
TABLE
  2
BLOCK_RECORD
  5
1
330
0
100
AcDbSymbolTable
 70
     1
  0
BLOCK_RECORD
  5
1F
330
1
100
AcDbSymbolTableRecord
100
AcDbBlockTableRecord
  2
*Model_Space
340
22
 70
     0
280
     1
281
     0
  0
BLOCK_RECORD
  5
1B
330
1
100
AcDbSymbolTableRecord
100
AcDbBlockTableRecord
  2
*Paper_Space
340
1E
 70
     0
280
     1
281
     0
  0
BLOCK_RECORD
  5
23
330
1
100
AcDbSymbolTableRecord
100
AcDbBlockTableRecord
  2
*Paper_Space0
340
26
 70
     0
280
     1
281
     0
  0
ENDTAB
  0
ENDSEC
  0
SECTION
  2
BLOCKS
  0
BLOCK
  5
20
330
1F
100
AcDbEntity
  8
0
100
AcDbBlockBegin
  2
*Model_Space
 70
     0
 10
0.0
 20
0.0
 30
0.0
  3
*Model_Space
  1
*Model_Space
  0
ENDBLK
  5
21
330
1F
100
AcDbEntity
  8
0
100
AcDbBlockEnd
  0
BLOCK
  5
1C
330
1B
100
AcDbEntity
 67
     1
  8
0
100
AcDbBlockBegin
  2
*Paper_Space
 70
     0
 10
0.0
 20
0.0
 30
0.0
  3
*Paper_Space
  1
*Paper_Space
  0
ENDBLK
  5
1D
330
1B
100
AcDbEntity
 67
     1
  8
0
100
AcDbBlockEnd
  0
BLOCK
  5
24
330
23
100
AcDbEntity
  8
0
100
AcDbBlockBegin
  2
*Paper_Space0
 70
     0
 10
0.0
 20
0.0
 30
0.0
  3
*Paper_Space0
  1
*Paper_Space0
  0
ENDBLK
  5
25
330
23
100
AcDbEntity
  8
0
100
AcDbBlockEnd
  0
ENDSEC
  0
SECTION
  2
ENTITIES
  0
SPLINE
  5
70
330
1F
100
AcDbEntity
  8
Layer 1
 62
   250
370
    18
100
AcDbSpline
210
0.0
220
0.0
230
1.0
 70
    11
 71
     3
 72
  1328
 73
  1324
 74
     0
 42
0.000000001
 43
0.0000000001
 40
0.0
 40
0.0
 40
0.0
 40
0.0
 40
0.0030120481927711
 40
0.0030120481927711
 40
0.0030120481927711
 40
0.0030120481927711
 40
0.0060240963855422
 40
0.0060240963855422
 40
0.0060240963855422
 40
0.0060240963855422
 40
0.0090361445783133
 40
0.0090361445783133
 40
0.0090361445783133
 40
0.0090361445783133
 40
0.0120481927710843
 40
0.0120481927710843
 40
0.0120481927710843
 40
0.0120481927710843
 40
0.0150602409638554
 40
0.0150602409638554
 40
0.0150602409638554
 40
0.0150602409638554
 40
0.0180722891566265
 40
0.0180722891566265
 40
0.0180722891566265
 40
0.0180722891566265
 40
0.0210843373493976
 40
0.0210843373493976
 40
0.0210843373493976
 40
0.0210843373493976
 40
0.0240963855421687
 40
0.0240963855421687
 40
0.0240963855421687
 40
0.0240963855421687
 40
0.0271084337349398
 40
0.0271084337349398
 40
0.0271084337349398
 40
0.0271084337349398
 40
0.0301204819277108
 40
0.0301204819277108
 40
0.0301204819277108
 40
0.0301204819277108
 40
0.0331325301204819
 40
0.0331325301204819
 40
0.0331325301204819
 40
0.0331325301204819
 40
0.036144578313253
 40
0.036144578313253
 40
0.036144578313253
 40
0.036144578313253
 40
0.0391566265060241
 40
0.0391566265060241
 40
0.0391566265060241
 40
0.0391566265060241
 40
0.0421686746987952
 40
0.0421686746987952
 40
0.0421686746987952
 40
0.0421686746987952
 40
0.0451807228915663
 40
0.0451807228915663
 40
0.0451807228915663
 40
0.0451807228915663
 40
0.0481927710843374
 40
0.0481927710843374
 40
0.0481927710843374
 40
0.0481927710843374
 40
0.0512048192771084
 40
0.0512048192771084
 40
0.0512048192771084
 40
0.0512048192771084
 40
0.0542168674698795
 40
0.0542168674698795
 40
0.0542168674698795
 40
0.0542168674698795
 40
0.0572289156626506
 40
0.0572289156626506
 40
0.0572289156626506
 40
0.0572289156626506
 40
0.0602409638554217
 40
0.0602409638554217
 40
0.0602409638554217
 40
0.0602409638554217
 40
0.0632530120481928
 40
0.0632530120481928
 40
0.0632530120481928
 40
0.0632530120481928
 40
0.0662650602409639
 40
0.0662650602409639
 40
0.0662650602409639
 40
0.0662650602409639
 40
0.0692771084337349
 40
0.0692771084337349
 40
0.0692771084337349
 40
0.0692771084337349
 40
0.072289156626506
 40
0.072289156626506
 40
0.072289156626506
 40
0.072289156626506
 40
0.0753012048192771
 40
0.0753012048192771
 40
0.0753012048192771
 40
0.0753012048192771
 40
0.0783132530120482
 40
0.0783132530120482
 40
0.0783132530120482
 40
0.0783132530120482
 40
0.0813253012048193
 40
0.0813253012048193
 40
0.0813253012048193
 40
0.0813253012048193
 40
0.0843373493975904
 40
0.0843373493975904
 40
0.0843373493975904
 40
0.0843373493975904
 40
0.0873493975903614
 40
0.0873493975903614
 40
0.0873493975903614
 40
0.0873493975903614
 40
0.0903614457831325
 40
0.0903614457831325
 40
0.0903614457831325
 40
0.0903614457831325
 40
0.0933734939759036
 40
0.0933734939759036
 40
0.0933734939759036
 40
0.0933734939759036
 40
0.0963855421686747
 40
0.0963855421686747
 40
0.0963855421686747
 40
0.0963855421686747
 40
0.0993975903614458
 40
0.0993975903614458
 40
0.0993975903614458
 40
0.0993975903614458
 40
0.1024096385542169
 40
0.1024096385542169
 40
0.1024096385542169
 40
0.1024096385542169
 40
0.105421686746988
 40
0.105421686746988
 40
0.105421686746988
 40
0.105421686746988
 40
0.108433734939759
 40
0.108433734939759
 40
0.108433734939759
 40
0.108433734939759
 40
0.1114457831325301
 40
0.1114457831325301
 40
0.1114457831325301
 40
0.1114457831325301
 40
0.1144578313253012
 40
0.1144578313253012
 40
0.1144578313253012
 40
0.1144578313253012
 40
0.1174698795180723
 40
0.1174698795180723
 40
0.1174698795180723
 40
0.1174698795180723
 40
0.1204819277108434
 40
0.1204819277108434
 40
0.1204819277108434
 40
0.1204819277108434
 40
0.1234939759036145
 40
0.1234939759036145
 40
0.1234939759036145
 40
0.1234939759036145
 40
0.1265060240963855
 40
0.1265060240963855
 40
0.1265060240963855
 40
0.1265060240963855
 40
0.1295180722891566
 40
0.1295180722891566
 40
0.1295180722891566
 40
0.1295180722891566
 40
0.1325301204819277
 40
0.1325301204819277
 40
0.1325301204819277
 40
0.1325301204819277
 40
0.1355421686746988
 40
0.1355421686746988
 40
0.1355421686746988
 40
0.1355421686746988
 40
0.1385542168674699
 40
0.1385542168674699
 40
0.1385542168674699
 40
0.1385542168674699
 40
0.141566265060241
 40
0.141566265060241
 40
0.141566265060241
 40
0.141566265060241
 40
0.144578313253012
 40
0.144578313253012
 40
0.144578313253012
 40
0.144578313253012
 40
0.1475903614457831
 40
0.1475903614457831
 40
0.1475903614457831
 40
0.1475903614457831
 40
0.1506024096385542
 40
0.1506024096385542
 40
0.1506024096385542
 40
0.1506024096385542
 40
0.1536144578313253
 40
0.1536144578313253
 40
0.1536144578313253
 40
0.1536144578313253
 40
0.1566265060240964
 40
0.1566265060240964
 40
0.1566265060240964
 40
0.1566265060240964
 40
0.1596385542168675
 40
0.1596385542168675
 40
0.1596385542168675
 40
0.1596385542168675
 40
0.1626506024096386
 40
0.1626506024096386
 40
0.1626506024096386
 40
0.1626506024096386
 40
0.1656626506024096
 40
0.1656626506024096
 40
0.1656626506024096
 40
0.1656626506024096
 40
0.1686746987951807
 40
0.1686746987951807
 40
0.1686746987951807
 40
0.1686746987951807
 40
0.1716867469879518
 40
0.1716867469879518
 40
0.1716867469879518
 40
0.1716867469879518
 40
0.1746987951807229
 40
0.1746987951807229
 40
0.1746987951807229
 40
0.1746987951807229
 40
0.177710843373494
 40
0.177710843373494
 40
0.177710843373494
 40
0.177710843373494
 40
0.1807228915662651
 40
0.1807228915662651
 40
0.1807228915662651
 40
0.1807228915662651
 40
0.1837349397590362
 40
0.1837349397590362
 40
0.1837349397590362
 40
0.1837349397590362
 40
0.1867469879518072
 40
0.1867469879518072
 40
0.1867469879518072
 40
0.1867469879518072
 40
0.1897590361445783
 40
0.1897590361445783
 40
0.1897590361445783
 40
0.1897590361445783
 40
0.1927710843373494
 40
0.1927710843373494
 40
0.1927710843373494
 40
0.1927710843373494
 40
0.1957831325301205
 40
0.1957831325301205
 40
0.1957831325301205
 40
0.1957831325301205
 40
0.1987951807228916
 40
0.1987951807228916
 40
0.1987951807228916
 40
0.1987951807228916
 40
0.2018072289156627
 40
0.2018072289156627
 40
0.2018072289156627
 40
0.2018072289156627
 40
0.2048192771084337
 40
0.2048192771084337
 40
0.2048192771084337
 40
0.2048192771084337
 40
0.2078313253012048
 40
0.2078313253012048
 40
0.2078313253012048
 40
0.2078313253012048
 40
0.2108433734939759
 40
0.2108433734939759
 40
0.2108433734939759
 40
0.2108433734939759
 40
0.213855421686747
 40
0.213855421686747
 40
0.213855421686747
 40
0.213855421686747
 40
0.2168674698795181
 40
0.2168674698795181
 40
0.2168674698795181
 40
0.2168674698795181
 40
0.2198795180722891
 40
0.2198795180722891
 40
0.2198795180722891
 40
0.2198795180722891
 40
0.2228915662650602
 40
0.2228915662650602
 40
0.2228915662650602
 40
0.2228915662650602
 40
0.2259036144578313
 40
0.2259036144578313
 40
0.2259036144578313
 40
0.2259036144578313
 40
0.2289156626506024
 40
0.2289156626506024
 40
0.2289156626506024
 40
0.2289156626506024
 40
0.2319277108433735
 40
0.2319277108433735
 40
0.2319277108433735
 40
0.2319277108433735
 40
0.2349397590361446
 40
0.2349397590361446
 40
0.2349397590361446
 40
0.2349397590361446
 40
0.2379518072289157
 40
0.2379518072289157
 40
0.2379518072289157
 40
0.2379518072289157
 40
0.2409638554216867
 40
0.2409638554216867
 40
0.2409638554216867
 40
0.2409638554216867
 40
0.2439759036144578
 40
0.2439759036144578
 40
0.2439759036144578
 40
0.2439759036144578
 40
0.2469879518072289
 40
0.2469879518072289
 40
0.2469879518072289
 40
0.2469879518072289
 40
0.25
 40
0.25
 40
0.25
 40
0.25
 40
0.2530120481927711
 40
0.2530120481927711
 40
0.2530120481927711
 40
0.2530120481927711
 40
0.2560240963855422
 40
0.2560240963855422
 40
0.2560240963855422
 40
0.2560240963855422
 40
0.2590361445783133
 40
0.2590361445783133
 40
0.2590361445783133
 40
0.2590361445783133
 40
0.2620481927710843
 40
0.2620481927710843
 40
0.2620481927710843
 40
0.2620481927710843
 40
0.2650602409638554
 40
0.2650602409638554
 40
0.2650602409638554
 40
0.2650602409638554
 40
0.2680722891566265
 40
0.2680722891566265
 40
0.2680722891566265
 40
0.2680722891566265
 40
0.2710843373493976
 40
0.2710843373493976
 40
0.2710843373493976
 40
0.2710843373493976
 40
0.2740963855421687
 40
0.2740963855421687
 40
0.2740963855421687
 40
0.2740963855421687
 40
0.2771084337349398
 40
0.2771084337349398
 40
0.2771084337349398
 40
0.2771084337349398
 40
0.2801204819277108
 40
0.2801204819277108
 40
0.2801204819277108
 40
0.2801204819277108
 40
0.283132530120482
 40
0.283132530120482
 40
0.283132530120482
 40
0.283132530120482
 40
0.286144578313253
 40
0.286144578313253
 40
0.286144578313253
 40
0.286144578313253
 40
0.2891566265060241
 40
0.2891566265060241
 40
0.2891566265060241
 40
0.2891566265060241
 40
0.2921686746987952
 40
0.2921686746987952
 40
0.2921686746987952
 40
0.2921686746987952
 40
0.2951807228915663
 40
0.2951807228915663
 40
0.2951807228915663
 40
0.2951807228915663
 40
0.2981927710843373
 40
0.2981927710843373
 40
0.2981927710843373
 40
0.2981927710843373
 40
0.3012048192771085
 40
0.3012048192771085
 40
0.3012048192771085
 40
0.3012048192771085
 40
0.3042168674698795
 40
0.3042168674698795
 40
0.3042168674698795
 40
0.3042168674698795
 40
0.3072289156626506
 40
0.3072289156626506
 40
0.3072289156626506
 40
0.3072289156626506
 40
0.3102409638554217
 40
0.3102409638554217
 40
0.3102409638554217
 40
0.3102409638554217
 40
0.3132530120481928
 40
0.3132530120481928
 40
0.3132530120481928
 40
0.3132530120481928
 40
0.3162650602409638
 40
0.3162650602409638
 40
0.3162650602409638
 40
0.3162650602409638
 40
0.3192771084337349
 40
0.3192771084337349
 40
0.3192771084337349
 40
0.3192771084337349
 40
0.322289156626506
 40
0.322289156626506
 40
0.322289156626506
 40
0.322289156626506
 40
0.3253012048192771
 40
0.3253012048192771
 40
0.3253012048192771
 40
0.3253012048192771
 40
0.3283132530120482
 40
0.3283132530120482
 40
0.3283132530120482
 40
0.3283132530120482
 40
0.3313253012048193
 40
0.3313253012048193
 40
0.3313253012048193
 40
0.3313253012048193
 40
0.3343373493975904
 40
0.3343373493975904
 40
0.3343373493975904
 40
0.3343373493975904
 40
0.3373493975903614
 40
0.3373493975903614
 40
0.3373493975903614
 40
0.3373493975903614
 40
0.3403614457831325
 40
0.3403614457831325
 40
0.3403614457831325
 40
0.3403614457831325
 40
0.3433734939759036
 40
0.3433734939759036
 40
0.3433734939759036
 40
0.3433734939759036
 40
0.3463855421686747
 40
0.3463855421686747
 40
0.3463855421686747
 40
0.3463855421686747
 40
0.3493975903614458
 40
0.3493975903614458
 40
0.3493975903614458
 40
0.3493975903614458
 40
0.3524096385542169
 40
0.3524096385542169
 40
0.3524096385542169
 40
0.3524096385542169
 40
0.3554216867469879
 40
0.3554216867469879
 40
0.3554216867469879
 40
0.3554216867469879
 40
0.3584337349397591
 40
0.3584337349397591
 40
0.3584337349397591
 40
0.3584337349397591
 40
0.3614457831325301
 40
0.3614457831325301
 40
0.3614457831325301
 40
0.3614457831325301
 40
0.3644578313253012
 40
0.3644578313253012
 40
0.3644578313253012
 40
0.3644578313253012
 40
0.3674698795180723
 40
0.3674698795180723
 40
0.3674698795180723
 40
0.3674698795180723
 40
0.3704819277108434
 40
0.3704819277108434
 40
0.3704819277108434
 40
0.3704819277108434
 40
0.3734939759036144
 40
0.3734939759036144
 40
0.3734939759036144
 40
0.3734939759036144
 40
0.3765060240963856
 40
0.3765060240963856
 40
0.3765060240963856
 40
0.3765060240963856
 40
0.3795180722891566
 40
0.3795180722891566
 40
0.3795180722891566
 40
0.3795180722891566
 40
0.3825301204819277
 40
0.3825301204819277
 40
0.3825301204819277
 40
0.3825301204819277
 40
0.3855421686746988
 40
0.3855421686746988
 40
0.3855421686746988
 40
0.3855421686746988
 40
0.3885542168674699
 40
0.3885542168674699
 40
0.3885542168674699
 40
0.3885542168674699
 40
0.3915662650602409
 40
0.3915662650602409
 40
0.3915662650602409
 40
0.3915662650602409
 40
0.3945783132530121
 40
0.3945783132530121
 40
0.3945783132530121
 40
0.3945783132530121
 40
0.3975903614457831
 40
0.3975903614457831
 40
0.3975903614457831
 40
0.3975903614457831
 40
0.4006024096385542
 40
0.4006024096385542
 40
0.4006024096385542
 40
0.4006024096385542
 40
0.4036144578313253
 40
0.4036144578313253
 40
0.4036144578313253
 40
0.4036144578313253
 40
0.4066265060240964
 40
0.4066265060240964
 40
0.4066265060240964
 40
0.4066265060240964
 40
0.4096385542168675
 40
0.4096385542168675
 40
0.4096385542168675
 40
0.4096385542168675
 40
0.4126506024096386
 40
0.4126506024096386
 40
0.4126506024096386
 40
0.4126506024096386
 40
0.4156626506024096
 40
0.4156626506024096
 40
0.4156626506024096
 40
0.4156626506024096
 40
0.4186746987951807
 40
0.4186746987951807
 40
0.4186746987951807
 40
0.4186746987951807
 40
0.4216867469879518
 40
0.4216867469879518
 40
0.4216867469879518
 40
0.4216867469879518
 40
0.4246987951807229
 40
0.4246987951807229
 40
0.4246987951807229
 40
0.4246987951807229
 40
0.427710843373494
 40
0.427710843373494
 40
0.427710843373494
 40
0.427710843373494
 40
0.4307228915662651
 40
0.4307228915662651
 40
0.4307228915662651
 40
0.4307228915662651
 40
0.4337349397590362
 40
0.4337349397590362
 40
0.4337349397590362
 40
0.4337349397590362
 40
0.4367469879518072
 40
0.4367469879518072
 40
0.4367469879518072
 40
0.4367469879518072
 40
0.4397590361445783
 40
0.4397590361445783
 40
0.4397590361445783
 40
0.4397590361445783
 40
0.4427710843373494
 40
0.4427710843373494
 40
0.4427710843373494
 40
0.4427710843373494
 40
0.4457831325301205
 40
0.4457831325301205
 40
0.4457831325301205
 40
0.4457831325301205
 40
0.4487951807228915
 40
0.4487951807228915
 40
0.4487951807228915
 40
0.4487951807228915
 40
0.4518072289156627
 40
0.4518072289156627
 40
0.4518072289156627
 40
0.4518072289156627
 40
0.4548192771084337
 40
0.4548192771084337
 40
0.4548192771084337
 40
0.4548192771084337
 40
0.4578313253012048
 40
0.4578313253012048
 40
0.4578313253012048
 40
0.4578313253012048
 40
0.4608433734939759
 40
0.4608433734939759
 40
0.4608433734939759
 40
0.4608433734939759
 40
0.463855421686747
 40
0.463855421686747
 40
0.463855421686747
 40
0.463855421686747
 40
0.466867469879518
 40
0.466867469879518
 40
0.466867469879518
 40
0.466867469879518
 40
0.4698795180722892
 40
0.4698795180722892
 40
0.4698795180722892
 40
0.4698795180722892
 40
0.4728915662650602
 40
0.4728915662650602
 40
0.4728915662650602
 40
0.4728915662650602
 40
0.4759036144578313
 40
0.4759036144578313
 40
0.4759036144578313
 40
0.4759036144578313
 40
0.4789156626506024
 40
0.4789156626506024
 40
0.4789156626506024
 40
0.4789156626506024
 40
0.4819277108433735
 40
0.4819277108433735
 40
0.4819277108433735
 40
0.4819277108433735
 40
0.4849397590361446
 40
0.4849397590361446
 40
0.4849397590361446
 40
0.4849397590361446
 40
0.4879518072289157
 40
0.4879518072289157
 40
0.4879518072289157
 40
0.4879518072289157
 40
0.4909638554216867
 40
0.4909638554216867
 40
0.4909638554216867
 40
0.4909638554216867
 40
0.4939759036144578
 40
0.4939759036144578
 40
0.4939759036144578
 40
0.4939759036144578
 40
0.4969879518072289
 40
0.4969879518072289
 40
0.4969879518072289
 40
0.4969879518072289
 40
0.5
 40
0.5
 40
0.5
 40
0.5
 40
0.5030120481927711
 40
0.5030120481927711
 40
0.5030120481927711
 40
0.5030120481927711
 40
0.5060240963855421
 40
0.5060240963855421
 40
0.5060240963855421
 40
0.5060240963855421
 40
0.5090361445783133
 40
0.5090361445783133
 40
0.5090361445783133
 40
0.5090361445783133
 40
0.5120481927710844
 40
0.5120481927710844
 40
0.5120481927710844
 40
0.5120481927710844
 40
0.5150602409638554
 40
0.5150602409638554
 40
0.5150602409638554
 40
0.5150602409638554
 40
0.5180722891566265
 40
0.5180722891566265
 40
0.5180722891566265
 40
0.5180722891566265
 40
0.5210843373493976
 40
0.5210843373493976
 40
0.5210843373493976
 40
0.5210843373493976
 40
0.5240963855421686
 40
0.5240963855421686
 40
0.5240963855421686
 40
0.5240963855421686
 40
0.5271084337349398
 40
0.5271084337349398
 40
0.5271084337349398
 40
0.5271084337349398
 40
0.5301204819277109
 40
0.5301204819277109
 40
0.5301204819277109
 40
0.5301204819277109
 40
0.5331325301204819
 40
0.5331325301204819
 40
0.5331325301204819
 40
0.5331325301204819
 40
0.536144578313253
 40
0.536144578313253
 40
0.536144578313253
 40
0.536144578313253
 40
0.5391566265060241
 40
0.5391566265060241
 40
0.5391566265060241
 40
0.5391566265060241
 40
0.5421686746987951
 40
0.5421686746987951
 40
0.5421686746987951
 40
0.5421686746987951
 40
0.5451807228915663
 40
0.5451807228915663
 40
0.5451807228915663
 40
0.5451807228915663
 40
0.5481927710843374
 40
0.5481927710843374
 40
0.5481927710843374
 40
0.5481927710843374
 40
0.5512048192771084
 40
0.5512048192771084
 40
0.5512048192771084
 40
0.5512048192771084
 40
0.5542168674698795
 40
0.5542168674698795
 40
0.5542168674698795
 40
0.5542168674698795
 40
0.5572289156626506
 40
0.5572289156626506
 40
0.5572289156626506
 40
0.5572289156626506
 40
0.5602409638554217
 40
0.5602409638554217
 40
0.5602409638554217
 40
0.5602409638554217
 40
0.5632530120481928
 40
0.5632530120481928
 40
0.5632530120481928
 40
0.5632530120481928
 40
0.5662650602409639
 40
0.5662650602409639
 40
0.5662650602409639
 40
0.5662650602409639
 40
0.5692771084337349
 40
0.5692771084337349
 40
0.5692771084337349
 40
0.5692771084337349
 40
0.572289156626506
 40
0.572289156626506
 40
0.572289156626506
 40
0.572289156626506
 40
0.5753012048192772
 40
0.5753012048192772
 40
0.5753012048192772
 40
0.5753012048192772
 40
0.5783132530120482
 40
0.5783132530120482
 40
0.5783132530120482
 40
0.5783132530120482
 40
0.5813253012048193
 40
0.5813253012048193
 40
0.5813253012048193
 40
0.5813253012048193
 40
0.5843373493975904
 40
0.5843373493975904
 40
0.5843373493975904
 40
0.5843373493975904
 40
0.5873493975903614
 40
0.5873493975903614
 40
0.5873493975903614
 40
0.5873493975903614
 40
0.5903614457831325
 40
0.5903614457831325
 40
0.5903614457831325
 40
0.5903614457831325
 40
0.5933734939759037
 40
0.5933734939759037
 40
0.5933734939759037
 40
0.5933734939759037
 40
0.5963855421686747
 40
0.5963855421686747
 40
0.5963855421686747
 40
0.5963855421686747
 40
0.5993975903614458
 40
0.5993975903614458
 40
0.5993975903614458
 40
0.5993975903614458
 40
0.6024096385542169
 40
0.6024096385542169
 40
0.6024096385542169
 40
0.6024096385542169
 40
0.6054216867469879
 40
0.6054216867469879
 40
0.6054216867469879
 40
0.6054216867469879
 40
0.608433734939759
 40
0.608433734939759
 40
0.608433734939759
 40
0.608433734939759
 40
0.6114457831325302
 40
0.6114457831325302
 40
0.6114457831325302
 40
0.6114457831325302
 40
0.6144578313253012
 40
0.6144578313253012
 40
0.6144578313253012
 40
0.6144578313253012
 40
0.6174698795180723
 40
0.6174698795180723
 40
0.6174698795180723
 40
0.6174698795180723
 40
0.6204819277108434
 40
0.6204819277108434
 40
0.6204819277108434
 40
0.6204819277108434
 40
0.6234939759036144
 40
0.6234939759036144
 40
0.6234939759036144
 40
0.6234939759036144
 40
0.6265060240963856
 40
0.6265060240963856
 40
0.6265060240963856
 40
0.6265060240963856
 40
0.6295180722891566
 40
0.6295180722891566
 40
0.6295180722891566
 40
0.6295180722891566
 40
0.6325301204819277
 40
0.6325301204819277
 40
0.6325301204819277
 40
0.6325301204819277
 40
0.6355421686746988
 40
0.6355421686746988
 40
0.6355421686746988
 40
0.6355421686746988
 40
0.6385542168674698
 40
0.6385542168674698
 40
0.6385542168674698
 40
0.6385542168674698
 40
0.641566265060241
 40
0.641566265060241
 40
0.641566265060241
 40
0.641566265060241
 40
0.6445783132530121
 40
0.6445783132530121
 40
0.6445783132530121
 40
0.6445783132530121
 40
0.6475903614457831
 40
0.6475903614457831
 40
0.6475903614457831
 40
0.6475903614457831
 40
0.6506024096385542
 40
0.6506024096385542
 40
0.6506024096385542
 40
0.6506024096385542
 40
0.6536144578313253
 40
0.6536144578313253
 40
0.6536144578313253
 40
0.6536144578313253
 40
0.6566265060240963
 40
0.6566265060240963
 40
0.6566265060240963
 40
0.6566265060240963
 40
0.6596385542168675
 40
0.6596385542168675
 40
0.6596385542168675
 40
0.6596385542168675
 40
0.6626506024096386
 40
0.6626506024096386
 40
0.6626506024096386
 40
0.6626506024096386
 40
0.6656626506024096
 40
0.6656626506024096
 40
0.6656626506024096
 40
0.6656626506024096
 40
0.6686746987951807
 40
0.6686746987951807
 40
0.6686746987951807
 40
0.6686746987951807
 40
0.6716867469879518
 40
0.6716867469879518
 40
0.6716867469879518
 40
0.6716867469879518
 40
0.6746987951807228
 40
0.6746987951807228
 40
0.6746987951807228
 40
0.6746987951807228
 40
0.677710843373494
 40
0.677710843373494
 40
0.677710843373494
 40
0.677710843373494
 40
0.6807228915662651
 40
0.6807228915662651
 40
0.6807228915662651
 40
0.6807228915662651
 40
0.6837349397590361
 40
0.6837349397590361
 40
0.6837349397590361
 40
0.6837349397590361
 40
0.6867469879518072
 40
0.6867469879518072
 40
0.6867469879518072
 40
0.6867469879518072
 40
0.6897590361445783
 40
0.6897590361445783
 40
0.6897590361445783
 40
0.6897590361445783
 40
0.6927710843373494
 40
0.6927710843373494
 40
0.6927710843373494
 40
0.6927710843373494
 40
0.6957831325301205
 40
0.6957831325301205
 40
0.6957831325301205
 40
0.6957831325301205
 40
0.6987951807228916
 40
0.6987951807228916
 40
0.6987951807228916
 40
0.6987951807228916
 40
0.7018072289156626
 40
0.7018072289156626
 40
0.7018072289156626
 40
0.7018072289156626
 40
0.7048192771084337
 40
0.7048192771084337
 40
0.7048192771084337
 40
0.7048192771084337
 40
0.7078313253012049
 40
0.7078313253012049
 40
0.7078313253012049
 40
0.7078313253012049
 40
0.7108433734939759
 40
0.7108433734939759
 40
0.7108433734939759
 40
0.7108433734939759
 40
0.713855421686747
 40
0.713855421686747
 40
0.713855421686747
 40
0.713855421686747
 40
0.7168674698795181
 40
0.7168674698795181
 40
0.7168674698795181
 40
0.7168674698795181
 40
0.7198795180722891
 40
0.7198795180722891
 40
0.7198795180722891
 40
0.7198795180722891
 40
0.7228915662650602
 40
0.7228915662650602
 40
0.7228915662650602
 40
0.7228915662650602
 40
0.7259036144578314
 40
0.7259036144578314
 40
0.7259036144578314
 40
0.7259036144578314
 40
0.7289156626506024
 40
0.7289156626506024
 40
0.7289156626506024
 40
0.7289156626506024
 40
0.7319277108433735
 40
0.7319277108433735
 40
0.7319277108433735
 40
0.7319277108433735
 40
0.7349397590361446
 40
0.7349397590361446
 40
0.7349397590361446
 40
0.7349397590361446
 40
0.7379518072289156
 40
0.7379518072289156
 40
0.7379518072289156
 40
0.7379518072289156
 40
0.7409638554216867
 40
0.7409638554216867
 40
0.7409638554216867
 40
0.7409638554216867
 40
0.7439759036144579
 40
0.7439759036144579
 40
0.7439759036144579
 40
0.7439759036144579
 40
0.7469879518072289
 40
0.7469879518072289
 40
0.7469879518072289
 40
0.7469879518072289
 40
0.75
 40
0.75
 40
0.75
 40
0.75
 40
0.7530120481927711
 40
0.7530120481927711
 40
0.7530120481927711
 40
0.7530120481927711
 40
0.7560240963855421
 40
0.7560240963855421
 40
0.7560240963855421
 40
0.7560240963855421
 40
0.7590361445783133
 40
0.7590361445783133
 40
0.7590361445783133
 40
0.7590361445783133
 40
0.7620481927710844
 40
0.7620481927710844
 40
0.7620481927710844
 40
0.7620481927710844
 40
0.7650602409638554
 40
0.7650602409638554
 40
0.7650602409638554
 40
0.7650602409638554
 40
0.7680722891566265
 40
0.7680722891566265
 40
0.7680722891566265
 40
0.7680722891566265
 40
0.7710843373493976
 40
0.7710843373493976
 40
0.7710843373493976
 40
0.7710843373493976
 40
0.7740963855421686
 40
0.7740963855421686
 40
0.7740963855421686
 40
0.7740963855421686
 40
0.7771084337349398
 40
0.7771084337349398
 40
0.7771084337349398
 40
0.7771084337349398
 40
0.7801204819277109
 40
0.7801204819277109
 40
0.7801204819277109
 40
0.7801204819277109
 40
0.7831325301204819
 40
0.7831325301204819
 40
0.7831325301204819
 40
0.7831325301204819
 40
0.786144578313253
 40
0.786144578313253
 40
0.786144578313253
 40
0.786144578313253
 40
0.7891566265060241
 40
0.7891566265060241
 40
0.7891566265060241
 40
0.7891566265060241
 40
0.7921686746987951
 40
0.7921686746987951
 40
0.7921686746987951
 40
0.7921686746987951
 40
0.7951807228915663
 40
0.7951807228915663
 40
0.7951807228915663
 40
0.7951807228915663
 40
0.7981927710843374
 40
0.7981927710843374
 40
0.7981927710843374
 40
0.7981927710843374
 40
0.8012048192771084
 40
0.8012048192771084
 40
0.8012048192771084
 40
0.8012048192771084
 40
0.8042168674698795
 40
0.8042168674698795
 40
0.8042168674698795
 40
0.8042168674698795
 40
0.8072289156626506
 40
0.8072289156626506
 40
0.8072289156626506
 40
0.8072289156626506
 40
0.8102409638554217
 40
0.8102409638554217
 40
0.8102409638554217
 40
0.8102409638554217
 40
0.8132530120481928
 40
0.8132530120481928
 40
0.8132530120481928
 40
0.8132530120481928
 40
0.8162650602409639
 40
0.8162650602409639
 40
0.8162650602409639
 40
0.8162650602409639
 40
0.8192771084337349
 40
0.8192771084337349
 40
0.8192771084337349
 40
0.8192771084337349
 40
0.822289156626506
 40
0.822289156626506
 40
0.822289156626506
 40
0.822289156626506
 40
0.8253012048192772
 40
0.8253012048192772
 40
0.8253012048192772
 40
0.8253012048192772
 40
0.8283132530120482
 40
0.8283132530120482
 40
0.8283132530120482
 40
0.8283132530120482
 40
0.8313253012048193
 40
0.8313253012048193
 40
0.8313253012048193
 40
0.8313253012048193
 40
0.8343373493975904
 40
0.8343373493975904
 40
0.8343373493975904
 40
0.8343373493975904
 40
0.8373493975903614
 40
0.8373493975903614
 40
0.8373493975903614
 40
0.8373493975903614
 40
0.8403614457831325
 40
0.8403614457831325
 40
0.8403614457831325
 40
0.8403614457831325
 40
0.8433734939759037
 40
0.8433734939759037
 40
0.8433734939759037
 40
0.8433734939759037
 40
0.8463855421686747
 40
0.8463855421686747
 40
0.8463855421686747
 40
0.8463855421686747
 40
0.8493975903614458
 40
0.8493975903614458
 40
0.8493975903614458
 40
0.8493975903614458
 40
0.8524096385542169
 40
0.8524096385542169
 40
0.8524096385542169
 40
0.8524096385542169
 40
0.8554216867469879
 40
0.8554216867469879
 40
0.8554216867469879
 40
0.8554216867469879
 40
0.858433734939759
 40
0.858433734939759
 40
0.858433734939759
 40
0.858433734939759
 40
0.8614457831325302
 40
0.8614457831325302
 40
0.8614457831325302
 40
0.8614457831325302
 40
0.8644578313253012
 40
0.8644578313253012
 40
0.8644578313253012
 40
0.8644578313253012
 40
0.8674698795180723
 40
0.8674698795180723
 40
0.8674698795180723
 40
0.8674698795180723
 40
0.8704819277108434
 40
0.8704819277108434
 40
0.8704819277108434
 40
0.8704819277108434
 40
0.8734939759036144
 40
0.8734939759036144
 40
0.8734939759036144
 40
0.8734939759036144
 40
0.8765060240963856
 40
0.8765060240963856
 40
0.8765060240963856
 40
0.8765060240963856
 40
0.8795180722891566
 40
0.8795180722891566
 40
0.8795180722891566
 40
0.8795180722891566
 40
0.8825301204819277
 40
0.8825301204819277
 40
0.8825301204819277
 40
0.8825301204819277
 40
0.8855421686746988
 40
0.8855421686746988
 40
0.8855421686746988
 40
0.8855421686746988
 40
0.8885542168674698
 40
0.8885542168674698
 40
0.8885542168674698
 40
0.8885542168674698
 40
0.891566265060241
 40
0.891566265060241
 40
0.891566265060241
 40
0.891566265060241
 40
0.8945783132530121
 40
0.8945783132530121
 40
0.8945783132530121
 40
0.8945783132530121
 40
0.8975903614457831
 40
0.8975903614457831
 40
0.8975903614457831
 40
0.8975903614457831
 40
0.9006024096385542
 40
0.9006024096385542
 40
0.9006024096385542
 40
0.9006024096385542
 40
0.9036144578313253
 40
0.9036144578313253
 40
0.9036144578313253
 40
0.9036144578313253
 40
0.9066265060240963
 40
0.9066265060240963
 40
0.9066265060240963
 40
0.9066265060240963
 40
0.9096385542168675
 40
0.9096385542168675
 40
0.9096385542168675
 40
0.9096385542168675
 40
0.9126506024096386
 40
0.9126506024096386
 40
0.9126506024096386
 40
0.9126506024096386
 40
0.9156626506024096
 40
0.9156626506024096
 40
0.9156626506024096
 40
0.9156626506024096
 40
0.9186746987951807
 40
0.9186746987951807
 40
0.9186746987951807
 40
0.9186746987951807
 40
0.9216867469879518
 40
0.9216867469879518
 40
0.9216867469879518
 40
0.9216867469879518
 40
0.9246987951807228
 40
0.9246987951807228
 40
0.9246987951807228
 40
0.9246987951807228
 40
0.927710843373494
 40
0.927710843373494
 40
0.927710843373494
 40
0.927710843373494
 40
0.9307228915662651
 40
0.9307228915662651
 40
0.9307228915662651
 40
0.9307228915662651
 40
0.9337349397590361
 40
0.9337349397590361
 40
0.9337349397590361
 40
0.9337349397590361
 40
0.9367469879518072
 40
0.9367469879518072
 40
0.9367469879518072
 40
0.9367469879518072
 40
0.9397590361445783
 40
0.9397590361445783
 40
0.9397590361445783
 40
0.9397590361445783
 40
0.9427710843373494
 40
0.9427710843373494
 40
0.9427710843373494
 40
0.9427710843373494
 40
0.9457831325301205
 40
0.9457831325301205
 40
0.9457831325301205
 40
0.9457831325301205
 40
0.9487951807228916
 40
0.9487951807228916
 40
0.9487951807228916
 40
0.9487951807228916
 40
0.9518072289156626
 40
0.9518072289156626
 40
0.9518072289156626
 40
0.9518072289156626
 40
0.9548192771084337
 40
0.9548192771084337
 40
0.9548192771084337
 40
0.9548192771084337
 40
0.9578313253012049
 40
0.9578313253012049
 40
0.9578313253012049
 40
0.9578313253012049
 40
0.9608433734939759
 40
0.9608433734939759
 40
0.9608433734939759
 40
0.9608433734939759
 40
0.963855421686747
 40
0.963855421686747
 40
0.963855421686747
 40
0.963855421686747
 40
0.9668674698795181
 40
0.9668674698795181
 40
0.9668674698795181
 40
0.9668674698795181
 40
0.9698795180722891
 40
0.9698795180722891
 40
0.9698795180722891
 40
0.9698795180722891
 40
0.9728915662650602
 40
0.9728915662650602
 40
0.9728915662650602
 40
0.9728915662650602
 40
0.9759036144578314
 40
0.9759036144578314
 40
0.9759036144578314
 40
0.9759036144578314
 40
0.9789156626506024
 40
0.9789156626506024
 40
0.9789156626506024
 40
0.9789156626506024
 40
0.9819277108433735
 40
0.9819277108433735
 40
0.9819277108433735
 40
0.9819277108433735
 40
0.9849397590361446
 40
0.9849397590361446
 40
0.9849397590361446
 40
0.9849397590361446
 40
0.9879518072289156
 40
0.9879518072289156
 40
0.9879518072289156
 40
0.9879518072289156
 40
0.9909638554216867
 40
0.9909638554216867
 40
0.9909638554216867
 40
0.9909638554216867
 40
0.9939759036144579
 40
0.9939759036144579
 40
0.9939759036144579
 40
0.9939759036144579
 40
1.0
 40
1.0
 40
1.0
 40
1.0
 10
6.112515748031496
 20
0.6137795275590551
 30
0.0
 10
6.11796062992126
 20
0.6095944881889763
 30
0.0
 10
6.123255905511811
 20
0.605259842519685
 30
0.0
 10
6.128389763779528
 20
0.6007834645669291
 30
0.0
 10
6.128389763779528
 20
0.6007834645669291
 30
0.0
 10
6.205913385826771
 20
0.5331574803149606
 30
0.0
 10
6.244681102362205
 20
0.4333661417322834
 30
0.0
 10
6.244681102362205
 20
0.3014094488188976
 30
0.0
 10
6.244681102362205
 20
0.3014094488188976
 30
0.0
 10
6.244681102362205
 20
0.3014094488188976
 30
0.0
 10
6.244681102362205
 20
-0.5942322834645669
 30
0.0
 10
6.244681102362205
 20
-0.5942322834645669
 30
0.0
 10
6.244681102362205
 20
-0.5942322834645669
 30
0.0
 10
6.244681102362205
 20
-0.6866062992125984
 30
0.0
 10
6.229007874015748
 20
-0.7633031496062992
 30
0.0
 10
6.197673228346456
 20
-0.8243346456692914
 30
0.0
 10
6.197673228346456
 20
-0.8243346456692914
 30
0.0
 10
6.166330708661417
 20
-0.8853622047244094
 30
0.0
 10
6.124271653543307
 20
-0.9340236220472441
 30
0.0
 10
6.071484251968504
 20
-0.9703110236220472
 30
0.0
 10
6.071484251968504
 20
-0.9703110236220472
 30
0.0
 10
6.134169291338583
 20
-0.9868031496062992
 30
0.0
 10
6.178700787401575
 20
-1.023090551181102
 30
0.0
 10
6.205090551181103
 20
-1.079169291338583
 30
0.0
 10
6.205090551181103
 20
-1.079169291338583
 30
0.0
 10
6.231484251968504
 20
-1.135255905511811
 30
0.0
 10
6.244681102362205
 20
-1.20948031496063
 30
0.0
 10
6.244681102362205
 20
-1.301846456692913
 30
0.0
 10
6.244681102362205
 20
-1.301846456692913
 30
0.0
 10
6.244681102362205
 20
-1.301846456692913
 30
0.0
 10
6.244681102362205
 20
-2.10842125984252
 30
0.0
 10
6.244681102362205
 20
-2.10842125984252
 30
0.0
 10
6.244681102362205
 20
-2.10842125984252
 30
0.0
 10
6.244681102362205
 20
-2.177700787401575
 30
0.0
 10
6.246326771653544
 20
-2.229661417322835
 30
0.0
 10
6.249625984251969
 20
-2.264295275590551
 30
0.0
 10
6.249625984251969
 20
-2.264295275590551
 30
0.0
 10
6.252929133858268
 20
-2.298933070866142
 30
0.0
 10
6.262818897637795
 20
-2.329448818897638
 30
0.0
 10
6.279314960629922
 20
-2.355838582677166
 30
0.0
 10
6.279314960629922
 20
-2.355838582677166
 30
0.0
 10
6.279314960629922
 20
-2.355838582677166
 30
0.0
 10
6.279314960629922
 20
-2.385531496062992
 30
0.0
 10
6.279314960629922
 20
-2.385531496062992
 30
0.0
 10
6.279314960629922
 20
-2.385531496062992
 30
0.0
 10
6.279314960629922
 20
-2.385531496062992
 30
0.0
 10
5.913141732283465
 20
-2.385531496062992
 30
0.0
 10
5.913141732283465
 20
-2.385531496062992
 30
0.0
 10
5.913141732283465
 20
-2.385531496062992
 30
0.0
 10
5.906543307086614
 20
-2.372334645669291
 30
0.0
 10
5.899944881889764
 20
-2.355838582677166
 30
0.0
 10
5.893346456692913
 20
-2.336047244094488
 30
0.0
 10
5.893346456692913
 20
-2.336047244094488
 30
0.0
 10
5.883452755905512
 20
-2.30305905511811
 30
0.0
 10
5.8785
 20
-2.248625984251968
 30
0.0
 10
5.8785
 20
-2.172751968503937
 30
0.0
 10
5.8785
 20
-2.172751968503937
 30
0.0
 10
5.8785
 20
-2.172751968503937
 30
0.0
 10
5.8785
 20
-1.192984251968504
 30
0.0
 10
5.8785
 20
-1.192984251968504
 30
0.0
 10
5.8785
 20
-1.192984251968504
 30
0.0
 10
5.8785
 20
-1.140204724409449
 30
0.0
 10
5.848811023622047
 20
-1.113807086614173
 30
0.0
 10
5.789429133858268
 20
-1.113807086614173
 30
0.0
 10
5.789429133858268
 20
-1.113807086614173
 30
0.0
 10
5.789429133858268
 20
-1.113807086614173
 30
0.0
 10
5.730047244094489
 20
-1.113807086614173
 30
0.0
 10
5.730047244094489
 20
-1.113807086614173
 30
0.0
 10
5.730047244094489
 20
-1.113807086614173
 30
0.0
 10
5.730047244094489
 20
-1.113807086614173
 30
0.0
 10
5.730047244094489
 20
-2.385531496062992
 30
0.0
 10
5.730047244094489
 20
-2.385531496062992
 30
0.0
 10
5.730047244094489
 20
-2.385531496062992
 30
0.0
 10
5.730047244094489
 20
-2.385531496062992
 30
0.0
 10
5.344078740157481
 20
-2.385531496062992
 30
0.0
 10
5.344078740157481
 20
-2.385531496062992
 30
0.0
 10
5.344078740157481
 20
-2.385531496062992
 30
0.0
 10
5.344078740157481
 20
-2.385531496062992
 30
0.0
 10
5.344078740157481
 20
0.6137795275590551
 30
0.0
 10
5.344078740157481
 20
0.6137795275590551
 30
0.0
 10
5.344078740157481
 20
0.6137795275590551
 30
0.0
 10
5.344078740157481
 20
0.6137795275590551
 30
0.0
 10
5.235216535433071
 20
0.6137795275590551
 30
0.0
 10
5.235216535433071
 20
0.6137795275590551
 30
0.0
 10
5.235216535433071
 20
0.6137795275590551
 30
0.0
 10
5.235216535433071
 20
0.6137795275590551
 30
0.0
 10
5.235216535433071
 20
0.3805826771653543
 30
0.0
 10
5.235216535433071
 20
0.3805826771653543
 30
0.0
 10
5.235216535433071
 20
0.3805826771653543
 30
0.0
 10
5.235216535433071
 20
0.3805826771653543
 30
0.0
 10
4.809661417322834
 20
0.3805826771653543
 30
0.0
 10
4.809661417322834
 20
0.3805826771653543
 30
0.0
 10
4.809661417322834
 20
0.3805826771653543
 30
0.0
 10
4.809661417322834
 20
0.3805826771653543
 30
0.0
 10
4.809661417322834
 20
-0.6387677165354331
 30
0.0
 10
4.809661417322834
 20
-0.6387677165354331
 30
0.0
 10
4.809661417322834
 20
-0.6387677165354331
 30
0.0
 10
4.809661417322834
 20
-0.6387677165354331
 30
0.0
 10
5.116456692913386
 20
-0.6387677165354331
 30
0.0
 10
5.116456692913386
 20
-0.6387677165354331
 30
0.0
 10
5.116456692913386
 20
-0.6387677165354331
 30
0.0
 10
5.116456692913386
 20
-0.6387677165354331
 30
0.0
 10
5.116456692913386
 20
-0.9703110236220472
 30
0.0
 10
5.116456692913386
 20
-0.9703110236220472
 30
0.0
 10
5.116456692913386
 20
-0.9703110236220472
 30
0.0
 10
5.116456692913386
 20
-0.9703110236220472
 30
0.0
 10
4.809661417322834
 20
-0.9703110236220472
 30
0.0
 10
4.809661417322834
 20
-0.9703110236220472
 30
0.0
 10
4.809661417322834
 20
-0.9703110236220472
 30
0.0
 10
4.809661417322834
 20
-0.9703110236220472
 30
0.0
 10
4.809661417322834
 20
-2.063885826771653
 30
0.0
 10
4.809661417322834
 20
-2.063885826771653
 30
0.0
 10
4.809661417322834
 20
-2.063885826771653
 30
0.0
 10
4.809661417322834
 20
-2.063885826771653
 30
0.0
 10
5.235216535433071
 20
-2.063885826771653
 30
0.0
 10
5.235216535433071
 20
-2.063885826771653
 30
0.0
 10
5.235216535433071
 20
-2.063885826771653
 30
0.0
 10
5.235216535433071
 20
-2.063885826771653
 30
0.0
 10
5.235216535433071
 20
-2.385531496062992
 30
0.0
 10
5.235216535433071
 20
-2.385531496062992
 30
0.0
 10
5.235216535433071
 20
-2.385531496062992
 30
0.0
 10
5.235216535433071
 20
-2.385531496062992
 30
0.0
 10
4.423692913385826
 20
-2.385531496062992
 30
0.0
 10
4.423692913385826
 20
-2.385531496062992
 30
0.0
 10
4.423692913385826
 20
-2.385531496062992
 30
0.0
 10
4.423692913385826
 20
-2.385531496062992
 30
0.0
 10
4.423692913385826
 20
0.6137795275590551
 30
0.0
 10
4.423692913385826
 20
0.6137795275590551
 30
0.0
 10
4.423692913385826
 20
0.6137795275590551
 30
0.0
 10
4.423692913385826
 20
0.6137795275590551
 30
0.0
 10
4.29503937007874
 20
0.6137795275590551
 30
0.0
 10
4.29503937007874
 20
0.6137795275590551
 30
0.0
 10
4.29503937007874
 20
0.6137795275590551
 30
0.0
 10
4.29503937007874
 20
0.6137795275590551
 30
0.0
 10
4.29503937007874
 20
-2.385531496062992
 30
0.0
 10
4.29503937007874
 20
-2.385531496062992
 30
0.0
 10
4.29503937007874
 20
-2.385531496062992
 30
0.0
 10
4.29503937007874
 20
-2.385531496062992
 30
0.0
 10
3.909070866141732
 20
-2.385531496062992
 30
0.0
 10
3.909070866141732
 20
-2.385531496062992
 30
0.0
 10
3.909070866141732
 20
-2.385531496062992
 30
0.0
 10
3.909070866141732
 20
-2.385531496062992
 30
0.0
 10
3.909070866141732
 20
-0.9703110236220472
 30
0.0
 10
3.909070866141732
 20
-0.9703110236220472
 30
0.0
 10
3.909070866141732
 20
-0.9703110236220472
 30
0.0
 10
3.909070866141732
 20
-0.9703110236220472
 30
0.0
 10
3.775468503937008
 20
-0.9703110236220472
 30
0.0
 10
3.775468503937008
 20
-0.9703110236220472
 30
0.0
 10
3.775468503937008
 20
-0.9703110236220472
 30
0.0
 10
3.775468503937008
 20
-0.9703110236220472
 30
0.0
 10
3.775468503937008
 20
-2.385531496062992
 30
0.0
 10
3.775468503937008
 20
-2.385531496062992
 30
0.0
 10
3.775468503937008
 20
-2.385531496062992
 30
0.0
 10
3.775468503937008
 20
-2.385531496062992
 30
0.0
 10
3.389492125984252
 20
-2.385531496062992
 30
0.0
 10
3.389492125984252
 20
-2.385531496062992
 30
0.0
 10
3.389492125984252
 20
-2.385531496062992
 30
0.0
 10
3.389492125984252
 20
-2.385531496062992
 30
0.0
 10
3.389492125984252
 20
0.6137795275590551
 30
0.0
 10
3.389492125984252
 20
0.6137795275590551
 30
0.0
 10
3.389492125984252
 20
0.6137795275590551
 30
0.0
 10
3.389492125984252
 20
0.6137795275590551
 30
0.0
 10
3.374649606299212
 20
0.6137795275590551
 30
0.0
 10
3.374649606299212
 20
0.6137795275590551
 30
0.0
 10
3.374649606299212
 20
0.6137795275590551
 30
0.0
 10
3.374649606299212
 20
0.6137795275590551
 30
0.0
 10
3.374649606299212
 20
0.3459488188976378
 30
0.0
 10
3.374649606299212
 20
0.3459488188976378
 30
0.0
 10
3.374649606299212
 20
0.3459488188976378
 30
0.0
 10
3.374649606299212
 20
0.3459488188976378
 30
0.0
 10
3.137129921259842
 20
0.3459488188976378
 30
0.0
 10
3.137129921259842
 20
0.3459488188976378
 30
0.0
 10
3.137129921259842
 20
0.3459488188976378
 30
0.0
 10
3.137129921259842
 20
0.3459488188976378
 30
0.0
 10
3.137129921259842
 20
-2.385531496062992
 30
0.0
 10
3.137129921259842
 20
-2.385531496062992
 30
0.0
 10
3.137129921259842
 20
-2.385531496062992
 30
0.0
 10
3.137129921259842
 20
-2.385531496062992
 30
0.0
 10
2.751161417322835
 20
-2.385531496062992
 30
0.0
 10
2.751161417322835
 20
-2.385531496062992
 30
0.0
 10
2.751161417322835
 20
-2.385531496062992
 30
0.0
 10
2.751161417322835
 20
-2.385531496062992
 30
0.0
 10
2.751161417322835
 20
0.3459488188976378
 30
0.0
 10
2.751161417322835
 20
0.3459488188976378
 30
0.0
 10
2.751161417322835
 20
0.3459488188976378
 30
0.0
 10
2.751161417322835
 20
0.3459488188976378
 30
0.0
 10
2.474051181102362
 20
0.3459488188976378
 30
0.0
 10
2.474051181102362
 20
0.3459488188976378
 30
0.0
 10
2.474051181102362
 20
0.3459488188976378
 30
0.0
 10
2.474051181102362
 20
0.3459488188976378
 30
0.0
 10
2.474051181102362
 20
0.6137795275590551
 30
0.0
 10
2.474051181102362
 20
0.6137795275590551
 30
0.0
 10
2.474051181102362
 20
0.6137795275590551
 30
0.0
 10
2.474051181102362
 20
0.6137795275590551
 30
0.0
 10
2.316035433070866
 20
0.6137795275590551
 30
0.0
 10
2.316035433070866
 20
0.6137795275590551
 30
0.0
 10
2.316035433070866
 20
0.6137795275590551
 30
0.0
 10
2.322708661417323
 20
0.6072559055118111
 30
0.0
 10
2.329204724409449
 20
0.6004488188976378
 30
0.0
 10
2.3355
 20
0.5933622047244095
 30
0.0
 10
2.3355
 20
0.5933622047244095
 30
0.0
 10
2.414673228346456
 20
0.5042913385826772
 30
0.0
 10
2.454259842519685
 20
0.3855275590551181
 30
0.0
 10
2.454259842519685
 20
0.2370787401574803
 30
0.0
 10
2.454259842519685
 20
0.2370787401574803
 30
0.0
 10
2.454259842519685
 20
0.2370787401574803
 30
0.0
 10
2.454259842519685
 20
-1.890700787401575
 30
0.0
 10
2.454259842519685
 20
-1.890700787401575
 30
0.0
 10
2.454259842519685
 20
-1.890700787401575
 30
0.0
 10
2.454259842519685
 20
-2.042444881889764
 30
0.0
 10
2.413850393700788
 20
-2.165330708661418
 30
0.0
 10
2.333023622047244
 20
-2.259350393700787
 30
0.0
 10
2.333023622047244
 20
-2.259350393700787
 30
0.0
 10
2.252204724409449
 20
-2.353370078740157
 30
0.0
 10
2.144165354330709
 20
-2.400374015748032
 30
0.0
 10
2.008913385826772
 20
-2.400374015748032
 30
0.0
 10
2.008913385826772
 20
-2.400374015748032
 30
0.0
 10
1.86046062992126
 20
-2.400374015748032
 30
0.0
 10
1.746645669291339
 20
-2.354188976377953
 30
0.0
 10
1.667476377952756
 20
-2.261826771653543
 30
0.0
 10
1.667476377952756
 20
-2.261826771653543
 30
0.0
 10
1.588307086614173
 20
-2.169448818897638
 30
0.0
 10
1.548716535433071
 20
-2.045744094488189
 30
0.0
 10
1.548716535433071
 20
-1.890700787401575
 30
0.0
 10
1.548716535433071
 20
-1.890700787401575
 30
0.0
 10
1.548716535433071
 20
-1.890700787401575
 30
0.0
 10
1.548716535433071
 20
0.2370787401574803
 30
0.0
 10
1.548716535433071
 20
0.2370787401574803
 30
0.0
 10
1.548716535433071
 20
0.2370787401574803
 30
0.0
 10
1.548716535433071
 20
0.3855275590551181
 30
0.0
 10
1.591602362204724
 20
0.5042874015748031
 30
0.0
 10
1.677374015748031
 20
0.5933622047244095
 30
0.0
 10
1.677374015748031
 20
0.5933622047244095
 30
0.0
 10
1.684200787401575
 20
0.6004488188976378
 30
0.0
 10
1.691181102362205
 20
0.607259842519685
 30
0.0
 10
1.698318897637795
 20
0.6137795275590551
 30
0.0
 10
1.698318897637795
 20
0.6137795275590551
 30
0.0
 10
1.698318897637795
 20
0.6137795275590551
 30
0.0
 10
1.292850393700787
 20
0.6137795275590551
 30
0.0
 10
1.292850393700787
 20
0.6137795275590551
 30
0.0
 10
1.292850393700787
 20
0.6137795275590551
 30
0.0
 10
1.298295275590551
 20
0.6095984251968504
 30
0.0
 10
1.303590551181102
 20
0.605263779527559
 30
0.0
 10
1.308724409448819
 20
0.6007834645669291
 30
0.0
 10
1.308724409448819
 20
0.6007834645669291
 30
0.0
 10
1.386251968503937
 20
0.5331614173228346
 30
0.0
 10
1.425007874015748
 20
0.4333661417322834
 30
0.0
 10
1.425007874015748
 20
0.3014094488188976
 30
0.0
 10
1.425007874015748
 20
0.3014094488188976
 30
0.0
 10
1.425007874015748
 20
0.3014094488188976
 30
0.0
 10
1.425007874015748
 20
-0.5942322834645669
 30
0.0
 10
1.425007874015748
 20
-0.5942322834645669
 30
0.0
 10
1.425007874015748
 20
-0.5942322834645669
 30
0.0
 10
1.425007874015748
 20
-0.6866062992125984
 30
0.0
 10
1.409342519685039
 20
-0.7633031496062992
 30
0.0
 10
1.378003937007874
 20
-0.8243346456692914
 30
0.0
 10
1.378003937007874
 20
-0.8243346456692914
 30
0.0
 10
1.346661417322835
 20
-0.8853622047244094
 30
0.0
 10
1.304602362204724
 20
-0.9340236220472441
 30
0.0
 10
1.251814960629921
 20
-0.9703110236220472
 30
0.0
 10
1.251814960629921
 20
-0.9703110236220472
 30
0.0
 10
1.314496062992126
 20
-0.9868031496062992
 30
0.0
 10
1.359035433070866
 20
-1.023090551181102
 30
0.0
 10
1.38542125984252
 20
-1.079169291338583
 30
0.0
 10
1.38542125984252
 20
-1.079169291338583
 30
0.0
 10
1.411814960629921
 20
-1.135255905511811
 30
0.0
 10
1.425007874015748
 20
-1.20948031496063
 30
0.0
 10
1.425007874015748
 20
-1.301846456692913
 30
0.0
 10
1.425007874015748
 20
-1.301846456692913
 30
0.0
 10
1.425007874015748
 20
-1.301846456692913
 30
0.0
 10
1.425007874015748
 20
-2.10842125984252
 30
0.0
 10
1.425007874015748
 20
-2.10842125984252
 30
0.0
 10
1.425007874015748
 20
-2.10842125984252
 30
0.0
 10
1.425007874015748
 20
-2.177700787401575
 30
0.0
 10
1.426661417322835
 20
-2.229661417322835
 30
0.0
 10
1.429956692913386
 20
-2.264295275590551
 30
0.0
 10
1.429956692913386
 20
-2.264295275590551
 30
0.0
 10
1.433259842519685
 20
-2.298933070866142
 30
0.0
 10
1.443149606299213
 20
-2.329448818897638
 30
0.0
 10
1.459649606299213
 20
-2.355838582677166
 30
0.0
 10
1.459649606299213
 20
-2.355838582677166
 30
0.0
 10
1.459649606299213
 20
-2.355838582677166
 30
0.0
 10
1.459649606299213
 20
-2.385531496062992
 30
0.0
 10
1.459649606299213
 20
-2.385531496062992
 30
0.0
 10
1.459649606299213
 20
-2.385531496062992
 30
0.0
 10
1.459649606299213
 20
-2.385531496062992
 30
0.0
 10
1.093476377952756
 20
-2.385531496062992
 30
0.0
 10
1.093476377952756
 20
-2.385531496062992
 30
0.0
 10
1.093476377952756
 20
-2.385531496062992
 30
0.0
 10
1.086874015748031
 20
-2.372334645669291
 30
0.0
 10
1.080275590551181
 20
-2.355838582677166
 30
0.0
 10
1.073677165354331
 20
-2.336047244094488
 30
0.0
 10
1.073677165354331
 20
-2.336047244094488
 30
0.0
 10
1.063783464566929
 20
-2.30305905511811
 30
0.0
 10
1.058830708661417
 20
-2.248625984251968
 30
0.0
 10
1.058830708661417
 20
-2.172751968503937
 30
0.0
 10
1.058830708661417
 20
-2.172751968503937
 30
0.0
 10
1.058830708661417
 20
-2.172751968503937
 30
0.0
 10
1.058830708661417
 20
-1.192984251968504
 30
0.0
 10
1.058830708661417
 20
-1.192984251968504
 30
0.0
 10
1.058830708661417
 20
-1.192984251968504
 30
0.0
 10
1.058830708661417
 20
-1.140204724409449
 30
0.0
 10
1.029145669291339
 20
-1.113807086614173
 30
0.0
 10
0.9697637795275591
 20
-1.113807086614173
 30
0.0
 10
0.9697637795275591
 20
-1.113807086614173
 30
0.0
 10
0.9697637795275591
 20
-1.113807086614173
 30
0.0
 10
0.9103818897637795
 20
-1.113807086614173
 30
0.0
 10
0.9103818897637795
 20
-1.113807086614173
 30
0.0
 10
0.9103818897637795
 20
-1.113807086614173
 30
0.0
 10
0.9103818897637795
 20
-1.113807086614173
 30
0.0
 10
0.9103818897637795
 20
-2.385531496062992
 30
0.0
 10
0.9103818897637795
 20
-2.385531496062992
 30
0.0
 10
0.9103818897637795
 20
-2.385531496062992
 30
0.0
 10
0.9103818897637795
 20
-2.385531496062992
 30
0.0
 10
0.5244094488188976
 20
-2.385531496062992
 30
0.0
 10
0.5244094488188976
 20
-2.385531496062992
 30
0.0
 10
0.5244094488188976
 20
-2.385531496062992
 30
0.0
 10
0.5244094488188976
 20
-2.385531496062992
 30
0.0
 10
0.5244094488188976
 20
0.6137795275590551
 30
0.0
 10
0.5244094488188976
 20
0.6137795275590551
 30
0.0
 10
0.5244094488188976
 20
0.6137795275590551
 30
0.0
 10
0.5244094488188976
 20
0.6137795275590551
 30
0.0
 10
0.2348228346456693
 20
0.6137795275590551
 30
0.0
 10
0.2348228346456693
 20
0.6137795275590551
 30
0.0
 10
0.2348228346456693
 20
0.6137795275590551
 30
0.0
 10
0.2507283464566929
 20
0.6009488188976378
 30
0.0
 10
0.2656181102362205
 20
0.5867165354330709
 30
0.0
 10
0.2794724409448819
 20
0.5710944881889763
 30
0.0
 10
0.2794724409448819
 20
0.5710944881889763
 30
0.0
 10
0.356996062992126
 20
0.4836771653543307
 30
0.0
 10
0.395759842519685
 20
0.3673858267716535
 30
0.0
 10
0.395759842519685
 20
0.2222362204724409
 30
0.0
 10
0.395759842519685
 20
0.2222362204724409
 30
0.0
 10
0.395759842519685
 20
0.2222362204724409
 30
0.0
 10
0.395759842519685
 20
-0.4160944881889764
 30
0.0
 10
0.395759842519685
 20
-0.4160944881889764
 30
0.0
 10
0.395759842519685
 20
-0.4160944881889764
 30
0.0
 10
0.395759842519685
 20
-0.4853740157480315
 30
0.0
 10
0.3800905511811024
 20
-0.544751968503937
 30
0.0
 10
0.348751968503937
 20
-0.5942322834645669
 30
0.0
 10
0.348751968503937
 20
-0.5942322834645669
 30
0.0
 10
0.3174094488188977
 20
-0.6437204724409449
 30
0.0
 10
0.2786496062992126
 20
-0.680007874015748
 30
0.0
 10
0.2324645669291339
 20
-0.7030984251968504
 30
0.0
 10
0.2324645669291339
 20
-0.7030984251968504
 30
0.0
 10
0.2786496062992126
 20
-0.7195944881889764
 30
0.0
 10
0.3174094488188977
 20
-0.7517598425196851
 30
0.0
 10
0.348751968503937
 20
-0.7995905511811023
 30
0.0
 10
0.348751968503937
 20
-0.7995905511811023
 30
0.0
 10
0.3800905511811024
 20
-0.8474291338582677
 30
0.0
 10
0.395759842519685
 20
-0.9043307086614173
 30
0.0
 10
0.395759842519685
 20
-0.9703110236220472
 30
0.0
 10
0.395759842519685
 20
-0.9703110236220472
 30
0.0
 10
0.395759842519685
 20
-0.9703110236220472
 30
0.0
 10
0.395759842519685
 20
-1.87090157480315
 30
0.0
 10
0.395759842519685
 20
-1.87090157480315
 30
0.0
 10
0.395759842519685
 20
-1.87090157480315
 30
0.0
 10
0.395759842519685
 20
-1.936885826771654
 30
0.0
 10
0.3883346456692913
 20
-2.000385826771653
 30
0.0
 10
0.373488188976378
 20
-2.061413385826772
 30
0.0
 10
0.373488188976378
 20
-2.061413385826772
 30
0.0
 10
0.3586417322834646
 20
-2.122444881889764
 30
0.0
 10
0.3339055118110236
 20
-2.176877952755905
 30
0.0
 10
0.2992637795275591
 20
-2.224712598425197
 30
0.0
 10
0.2992637795275591
 20
-2.224712598425197
 30
0.0
 10
0.2646299212598425
 20
-2.272543307086614
 30
0.0
 10
0.2200944881889764
 20
-2.311303149606299
 30
0.0
 10
0.1656614173228347
 20
-2.340996062992126
 30
0.0
 10
0.1656614173228347
 20
-2.340996062992126
 30
0.0
 10
0.1112322834645669
 20
-2.370681102362205
 30
0.0
 10
0.0444291338582677
 20
-2.385531496062992
 30
0.0
 10
-0.034748031496063
 20
-2.385531496062992
 30
0.0
 10
-0.034748031496063
 20
-2.385531496062992
 30
0.0
 10
-0.034748031496063
 20
-2.385531496062992
 30
0.0
 10
-0.5097834645669291
 20
-2.385531496062992
 30
0.0
 10
-0.5097834645669291
 20
-2.385531496062992
 30
0.0
 10
-0.5097834645669291
 20
-2.385531496062992
 30
0.0
 10
-0.5097834645669291
 20
-2.385531496062992
 30
0.0
 10
-0.5097834645669291
 20
0.6137795275590551
 30
0.0
 10
-0.5097834645669291
 20
0.6137795275590551
 30
0.0
 10
-0.5097834645669291
 20
0.6137795275590551
 30
0.0
 10
-0.5097834645669291
 20
0.6137795275590551
 30
0.0
 10
-0.794244094488189
 20
0.6137795275590551
 30
0.0
 10
-0.794244094488189
 20
0.6137795275590551
 30
0.0
 10
-0.794244094488189
 20
0.6137795275590551
 30
0.0
 10
-0.794244094488189
 20
0.6137795275590551
 30
0.0
 10
-0.794244094488189
 20
0.0787086614173228
 30
0.0
 10
-0.794244094488189
 20
0.0787086614173228
 30
0.0
 10
-0.794244094488189
 20
0.0787086614173228
 30
0.0
 10
-0.794244094488189
 20
0.0787086614173228
 30
0.0
 10
-1.264527559055118
 20
0.0787086614173228
 30
0.0
 10
-1.264527559055118
 20
0.0787086614173228
 30
0.0
 10
-1.264527559055118
 20
0.0787086614173228
 30
0.0
 10
-1.264527559055118
 20
0.0787086614173228
 30
0.0
 10
-1.264527559055118
 20
-0.6090629921259842
 30
0.0
 10
-1.264527559055118
 20
-0.6090629921259842
 30
0.0
 10
-1.264527559055118
 20
-0.6090629921259842
 30
0.0
 10
-1.264527559055118
 20
-0.6090629921259842
 30
0.0
 10
-0.9254842519685039
 20
-0.6090629921259842
 30
0.0
 10
-0.9254842519685039
 20
-0.6090629921259842
 30
0.0
 10
-0.9254842519685039
 20
-0.6090629921259842
 30
0.0
 10
-0.9254842519685039
 20
-0.6090629921259842
 30
0.0
 10
-0.9254842519685039
 20
-0.8520236220472441
 30
0.0
 10
-0.9254842519685039
 20
-0.8520236220472441
 30
0.0
 10
-0.9254842519685039
 20
-0.8520236220472441
 30
0.0
 10
-0.9254842519685039
 20
-0.8520236220472441
 30
0.0
 10
-1.264527559055118
 20
-0.8520236220472441
 30
0.0
 10
-1.264527559055118
 20
-0.8520236220472441
 30
0.0
 10
-1.264527559055118
 20
-0.8520236220472441
 30
0.0
 10
-1.264527559055118
 20
-0.8520236220472441
 30
0.0
 10
-1.264527559055118
 20
-1.985350393700787
 30
0.0
 10
-1.264527559055118
 20
-1.985350393700787
 30
0.0
 10
-1.264527559055118
 20
-1.985350393700787
 30
0.0
 10
-1.264527559055118
 20
-1.985350393700787
 30
0.0
 10
-0.788763779527559
 20
-1.985350393700787
 30
0.0
 10
-0.788763779527559
 20
-1.985350393700787
 30
0.0
 10
-0.788763779527559
 20
-1.985350393700787
 30
0.0
 10
-0.788763779527559
 20
-1.985350393700787
 30
0.0
 10
-0.788763779527559
 20
-2.405322834645669
 30
0.0
 10
-0.788763779527559
 20
-2.405322834645669
 30
0.0
 10
-0.788763779527559
 20
-2.405322834645669
 30
0.0
 10
-0.788763779527559
 20
-2.405322834645669
 30
0.0
 10
-2.839425196850394
 20
-2.405322834645669
 30
0.0
 10
-2.839425196850394
 20
-2.405322834645669
 30
0.0
 10
-2.839425196850394
 20
-2.405322834645669
 30
0.0
 10
-2.839425196850394
 20
-2.405322834645669
 30
0.0
 10
-2.839425196850394
 20
-1.985350393700787
 30
0.0
 10
-2.839425196850394
 20
-1.985350393700787
 30
0.0
 10
-2.839425196850394
 20
-1.985350393700787
 30
0.0
 10
-2.839425196850394
 20
-1.985350393700787
 30
0.0
 10
-2.576350393700787
 20
-1.985350393700787
 30
0.0
 10
-2.576350393700787
 20
-1.985350393700787
 30
0.0
 10
-2.576350393700787
 20
-1.985350393700787
 30
0.0
 10
-2.624850393700787
 20
-1.968496062992126
 30
0.0
 10
-2.666972440944882
 20
-1.945818897637795
 30
0.0
 10
-2.702700787401575
 20
-1.917322834645669
 30
0.0
 10
-2.702700787401575
 20
-1.917322834645669
 30
0.0
 10
-2.790192913385827
 20
-1.847547244094488
 30
0.0
 10
-2.83394094488189
 20
-1.75409842519685
 30
0.0
 10
-2.83394094488189
 20
-1.63698031496063
 30
0.0
 10
-2.83394094488189
 20
-1.63698031496063
 30
0.0
 10
-2.83394094488189
 20
-1.63698031496063
 30
0.0
 10
-2.83394094488189
 20
-0.0296889763779528
 30
0.0
 10
-2.83394094488189
 20
-0.0296889763779528
 30
0.0
 10
-2.83394094488189
 20
-0.0296889763779528
 30
0.0
 10
-2.83394094488189
 20
0.0824448818897638
 30
0.0
 10
-2.786551181102362
 20
0.1721496062992126
 30
0.0
 10
-2.691759842519685
 20
0.2394330708661417
 30
0.0
 10
-2.691759842519685
 20
0.2394330708661417
 30
0.0
 10
-2.651472440944882
 20
0.2680275590551181
 30
0.0
 10
-2.606240157480315
 20
0.2905551181102362
 30
0.0
 10
-2.556082677165354
 20
0.306992125984252
 30
0.0
 10
-2.556082677165354
 20
0.306992125984252
 30
0.0
 10
-2.556082677165354
 20
0.306992125984252
 30
0.0
 10
-2.839425196850394
 20
0.306992125984252
 30
0.0
 10
-2.839425196850394
 20
0.306992125984252
 30
0.0
 10
-2.839425196850394
 20
0.306992125984252
 30
0.0
 10
-2.839425196850394
 20
0.306992125984252
 30
0.0
 10
-2.839425196850394
 20
0.6137795275590551
 30
0.0
 10
-2.839425196850394
 20
0.6137795275590551
 30
0.0
 10
-2.839425196850394
 20
0.6137795275590551
 30
0.0
 10
-2.839425196850394
 20
0.6137795275590551
 30
0.0
 10
-3.240425196850394
 20
0.6137795275590551
 30
0.0
 10
-3.240425196850394
 20
0.6137795275590551
 30
0.0
 10
-3.240425196850394
 20
0.6137795275590551
 30
0.0
 10
-3.228791338582677
 20
0.603236220472441
 30
0.0
 10
-3.218007874015748
 20
0.5918346456692913
 30
0.0
 10
-3.208074803149606
 20
0.5795944881889764
 30
0.0
 10
-3.208074803149606
 20
0.5795944881889764
 30
0.0
 10
-3.136476377952756
 20
0.4913385826771653
 30
0.0
 10
-3.100669291338582
 20
0.3689448818897638
 30
0.0
 10
-3.100669291338582
 20
0.2124055118110236
 30
0.0
 10
-3.100669291338582
 20
0.2124055118110236
 30
0.0
 10
-3.100669291338582
 20
0.2124055118110236
 30
0.0
 10
-3.100669291338582
 20
-1.885767716535433
 30
0.0
 10
-3.100669291338582
 20
-1.885767716535433
 30
0.0
 10
-3.100669291338582
 20
-1.885767716535433
 30
0.0
 10
-3.100669291338582
 20
-2.025653543307087
 30
0.0
 10
-3.134807086614173
 20
-2.147208661417323
 30
0.0
 10
-3.203082677165354
 20
-2.250456692913386
 30
0.0
 10
-3.203082677165354
 20
-2.250456692913386
 30
0.0
 10
-3.271354330708661
 20
-2.353696850393701
 30
0.0
 10
-3.390417322834645
 20
-2.405322834645669
 30
0.0
 10
-3.560271653543307
 20
-2.405322834645669
 30
0.0
 10
-3.560271653543307
 20
-2.405322834645669
 30
0.0
 10
-3.560271653543307
 20
-2.405322834645669
 30
0.0
 10
-4.014877952755906
 20
-2.405322834645669
 30
0.0
 10
-4.014877952755906
 20
-2.405322834645669
 30
0.0
 10
-4.014877952755906
 20
-2.405322834645669
 30
0.0
 10
-4.014877952755906
 20
-2.405322834645669
 30
0.0
 10
-4.014877952755906
 20
0.6137795275590551
 30
0.0
 10
-4.014877952755906
 20
0.6137795275590551
 30
0.0
 10
-4.014877952755906
 20
0.6137795275590551
 30
0.0
 10
-4.014877952755906
 20
0.6137795275590551
 30
0.0
 10
-4.149759842519685
 20
0.6137795275590551
 30
0.0
 10
-4.149759842519685
 20
0.6137795275590551
 30
0.0
 10
-4.149759842519685
 20
0.6137795275590551
 30
0.0
 10
-4.149759842519685
 20
0.6137795275590551
 30
0.0
 10
-4.149759842519685
 20
-2.405322834645669
 30
0.0
 10
-4.149759842519685
 20
-2.405322834645669
 30
0.0
 10
-4.149759842519685
 20
-2.405322834645669
 30
0.0
 10
-4.149759842519685
 20
-2.405322834645669
 30
0.0
 10
-4.506952755905512
 20
-2.405322834645669
 30
0.0
 10
-4.506952755905512
 20
-2.405322834645669
 30
0.0
 10
-4.506952755905512
 20
-2.405322834645669
 30
0.0
 10
-4.506952755905512
 20
-2.405322834645669
 30
0.0
 10
-4.909106299212598
 20
-0.731767716535433
 30
0.0
 10
-4.909106299212598
 20
-0.731767716535433
 30
0.0
 10
-4.909106299212598
 20
-0.731767716535433
 30
0.0
 10
-4.909106299212598
 20
-0.731767716535433
 30
0.0
 10
-4.909106299212598
 20
-2.405322834645669
 30
0.0
 10
-4.909106299212598
 20
-2.405322834645669
 30
0.0
 10
-4.909106299212598
 20
-2.405322834645669
 30
0.0
 10
-4.909106299212598
 20
-2.405322834645669
 30
0.0
 10
-5.298767716535433
 20
-2.405322834645669
 30
0.0
 10
-5.298767716535433
 20
-2.405322834645669
 30
0.0
 10
-5.298767716535433
 20
-2.405322834645669
 30
0.0
 10
-5.298767716535433
 20
-2.405322834645669
 30
0.0
 10
-5.298767716535433
 20
0.6137795275590551
 30
0.0
 10
-5.298767716535433
 20
0.6137795275590551
 30
0.0
 10
-5.298767716535433
 20
0.6137795275590551
 30
0.0
 10
-5.298767716535433
 20
0.6137795275590551
 30
0.0
 10
-5.557984251968504
 20
0.6137795275590551
 30
0.0
 10
-5.557984251968504
 20
0.6137795275590551
 30
0.0
 10
-5.557984251968504
 20
0.6137795275590551
 30
0.0
 10
-5.551614173228346
 20
0.6076299212598425
 30
0.0
 10
-5.545440944881889
 20
0.6011968503937007
 30
0.0
 10
-5.539389763779528
 20
0.5945787401574804
 30
0.0
 10
-5.539389763779528
 20
0.5945787401574804
 30
0.0
 10
-5.458657480314961
 20
0.5062992125984253
 30
0.0
 10
-5.418661417322834
 20
0.3855905511811024
 30
0.0
 10
-5.418661417322834
 20
0.2323937007874016
 30
0.0
 10
-5.418661417322834
 20
0.2323937007874016
 30
0.0
 10
-5.418661417322834
 20
0.2323937007874016
 30
0.0
 10
-5.418661417322834
 20
-2.405322834645669
 30
0.0
 10
-5.418661417322834
 20
-2.405322834645669
 30
0.0
 10
-5.418661417322834
 20
-2.405322834645669
 30
0.0
 10
-5.418661417322834
 20
-2.405322834645669
 30
0.0
 10
-5.808326771653543
 20
-2.405322834645669
 30
0.0
 10
-5.808326771653543
 20
-2.405322834645669
 30
0.0
 10
-5.808326771653543
 20
-2.405322834645669
 30
0.0
 10
-5.808326771653543
 20
-2.405322834645669
 30
0.0
 10
-5.808326771653543
 20
-1.466133858267717
 30
0.0
 10
-5.808326771653543
 20
-1.466133858267717
 30
0.0
 10
-5.808326771653543
 20
-1.466133858267717
 30
0.0
 10
-5.808326771653543
 20
-1.466133858267717
 30
0.0
 10
-5.948204724409448
 20
-1.466133858267717
 30
0.0
 10
-5.948204724409448
 20
-1.466133858267717
 30
0.0
 10
-5.948204724409448
 20
-1.466133858267717
 30
0.0
 10
-5.948204724409448
 20
-1.466133858267717
 30
0.0
 10
-5.948204724409448
 20
-2.405322834645669
 30
0.0
 10
-5.948204724409448
 20
-2.405322834645669
 30
0.0
 10
-5.948204724409448
 20
-2.405322834645669
 30
0.0
 10
-5.948204724409448
 20
-2.405322834645669
 30
0.0
 10
-6.337862204724409
 20
-2.405322834645669
 30
0.0
 10
-6.337862204724409
 20
-2.405322834645669
 30
0.0
 10
-6.337862204724409
 20
-2.405322834645669
 30
0.0
 10
-6.337862204724409
 20
-2.405322834645669
 30
0.0
 10
-6.337862204724409
 20
0.2323937007874016
 30
0.0
 10
-6.337862204724409
 20
0.2323937007874016
 30
0.0
 10
-6.337862204724409
 20
0.2323937007874016
 30
0.0
 10
-6.337862204724409
 20
0.3855905511811024
 30
0.0
 10
-6.294570866141732
 20
0.5063267716535433
 30
0.0
 10
-6.207145669291338
 20
0.5945787401574804
 30
0.0
 10
-6.207145669291338
 20
0.5945787401574804
 30
0.0
 10
-6.200622047244094
 20
0.6012283464566929
 30
0.0
 10
-6.193944881889764
 20
0.6076299212598425
 30
0.0
 10
-6.187129921259842
 20
0.6137795275590551
 30
0.0
 10
-6.187129921259842
 20
0.6137795275590551
 30
0.0
 10
-6.187129921259842
 20
0.6137795275590551
 30
0.0
 10
-6.599614173228346
 20
0.6137795275590551
 30
0.0
 10
-6.599614173228346
 20
0.6137795275590551
 30
0.0
 10
-6.599614173228346
 20
0.6137795275590551
 30
0.0
 10
-6.587507874015748
 20
0.603236220472441
 30
0.0
 10
-6.57601968503937
 20
0.5918385826771654
 30
0.0
 10
-6.565165354330708
 20
0.5795944881889764
 30
0.0
 10
-6.565165354330708
 20
0.5795944881889764
 30
0.0
 10
-6.48690157480315
 20
0.4913425196850394
 30
0.0
 10
-6.447767716535433
 20
0.3739409448818898
 30
0.0
 10
-6.447767716535433
 20
0.2273976377952756
 30
0.0
 10
-6.447767716535433
 20
0.2273976377952756
 30
0.0
 10
-6.447767716535433
 20
0.2273976377952756
 30
0.0
 10
-6.447767716535433
 20
-0.4170433070866142
 30
0.0
 10
-6.447767716535433
 20
-0.4170433070866142
 30
0.0
 10
-6.447767716535433
 20
-0.4170433070866142
 30
0.0
 10
-6.447767716535433
 20
-0.4869803149606299
 30
0.0
 10
-6.463582677165355
 20
-0.5469291338582677
 30
0.0
 10
-6.495228346456693
 20
-0.5968858267716536
 30
0.0
 10
-6.495228346456693
 20
-0.5968858267716536
 30
0.0
 10
-6.526870078740157
 20
-0.6468425196850394
 30
0.0
 10
-6.565996062992126
 20
-0.683476377952756
 30
0.0
 10
-6.612625984251968
 20
-0.7067952755905512
 30
0.0
 10
-6.612625984251968
 20
-0.7067952755905512
 30
0.0
 10
-6.565996062992126
 20
-0.7234448818897637
 30
0.0
 10
-6.526870078740157
 20
-0.7559173228346456
 30
0.0
 10
-6.495228346456693
 20
-0.8042047244094488
 30
0.0
 10
-6.495228346456693
 20
-0.8042047244094488
 30
0.0
 10
-6.463582677165355
 20
-0.8525
 30
0.0
 10
-6.447767716535433
 20
-0.9099488188976378
 30
0.0
 10
-6.447767716535433
 20
-0.9765590551181103
 30
0.0
 10
-6.447767716535433
 20
-0.9765590551181103
 30
0.0
 10
-6.447767716535433
 20
-0.9765590551181103
 30
0.0
 10
-6.447767716535433
 20
-1.885767716535433
 30
0.0
 10
-6.447767716535433
 20
-1.885767716535433
 30
0.0
 10
-6.447767716535433
 20
-1.885767716535433
 30
0.0
 10
-6.447767716535433
 20
-1.952381889763779
 30
0.0
 10
-6.455263779527559
 20
-2.016488188976378
 30
0.0
 10
-6.470251968503937
 20
-2.078102362204724
 30
0.0
 10
-6.470251968503937
 20
-2.078102362204724
 30
0.0
 10
-6.485236220472441
 20
-2.139716535433071
 30
0.0
 10
-6.510212598425197
 20
-2.194669291338583
 30
0.0
 10
-6.545185039370079
 20
-2.242956692913386
 30
0.0
 10
-6.545185039370079
 20
-2.242956692913386
 30
0.0
 10
-6.580157480314961
 20
-2.291251968503937
 30
0.0
 10
-6.625118110236221
 20
-2.330385826771654
 30
0.0
 10
-6.680070866141732
 20
-2.360354330708661
 30
0.0
 10
-6.680070866141732
 20
-2.360354330708661
 30
0.0
 10
-6.735015748031496
 20
-2.390330708661417
 30
0.0
 10
-6.802464566929133
 20
-2.405322834645669
 30
0.0
 10
-6.882389763779527
 20
-2.405322834645669
 30
0.0
 10
-6.882389763779527
 20
-2.405322834645669
 30
0.0
 10
-6.882389763779527
 20
-2.405322834645669
 30
0.0
 10
-7.361976377952756
 20
-2.405322834645669
 30
0.0
 10
-7.361976377952756
 20
-2.405322834645669
 30
0.0
 10
-7.361976377952756
 20
-2.405322834645669
 30
0.0
 10
-7.361976377952756
 20
-2.405322834645669
 30
0.0
 10
-7.361976377952756
 20
0.6139645669291338
 30
0.0
 10
-7.361976377952756
 20
0.6139645669291338
 30
0.0
 10
-7.361976377952756
 20
0.6139645669291338
 30
0.0
 10
-7.670661417322835
 20
0.6182047244094488
 30
0.0
 10
-7.629838582677166
 20
0.6968937007874015
 30
0.0
 10
-7.472799212598425
 20
0.974744094488189
 30
0.0
 10
-7.472799212598425
 20
0.974744094488189
 30
0.0
 10
-7.436688976377953
 20
1.038629921259842
 30
0.0
 10
-7.400574803149606
 20
1.088633858267717
 30
0.0
 10
-7.306129921259843
 20
1.18307874015748
 30
0.0
 10
-7.306129921259843
 20
1.18307874015748
 30
0.0
 10
-7.211685039370079
 20
1.277523622047244
 30
0.0
 10
-7.058909448818897
 20
1.416413385826772
 30
0.0
 10
-6.960295275590552
 20
1.498358267716535
 30
0.0
 10
-6.960295275590552
 20
1.498358267716535
 30
0.0
 10
-6.861685039370078
 20
1.580303149606299
 30
0.0
 10
-6.817244094488189
 20
1.605303149606299
 30
0.0
 10
-6.78251968503937
 20
1.630303149606299
 30
0.0
 10
-6.78251968503937
 20
1.630303149606299
 30
0.0
 10
-6.627649606299213
 20
1.741811023622047
 30
0.0
 10
-6.669527559055118
 20
1.9425
 30
0.0
 10
-6.431125984251969
 20
2.021968503937008
 30
0.0
 10
-6.431125984251969
 20
2.021968503937008
 30
0.0
 10
-6.36446062992126
 20
2.044192913385827
 30
0.0
 10
-6.281129921259843
 20
2.05807874015748
 30
0.0
 10
-6.195015748031496
 20
2.08307874015748
 30
0.0
 10
-6.195015748031496
 20
2.08307874015748
 30
0.0
 10
-6.108905511811024
 20
2.108078740157481
 30
0.0
 10
-6.02001968503937
 20
2.144192913385827
 30
0.0
 10
-5.964464566929134
 20
2.144192913385827
 30
0.0
 10
-5.964464566929134
 20
2.144192913385827
 30
0.0
 10
-5.866846456692913
 20
2.144192913385827
 30
0.0
 10
-5.87901968503937
 20
2.041244094488189
 30
0.0
 10
-5.799185039370078
 20
2.19557874015748
 30
0.0
 10
-5.799185039370078
 20
2.19557874015748
 30
0.0
 10
-5.778350393700787
 20
2.235858267716536
 30
0.0
 10
-5.758909448818898
 20
2.274748031496063
 30
0.0
 10
-5.763074803149606
 20
2.312248031496063
 30
0.0
 10
-5.763074803149606
 20
2.312248031496063
 30
0.0
 10
-5.772007874015748
 20
2.392681102362205
 30
0.0
 10
-5.845877952755906
 20
2.403594488188976
 30
0.0
 10
-5.768629921259842
 20
2.558082677165354
 30
0.0
 10
-5.768629921259842
 20
2.558082677165354
 30
0.0
 10
-5.742240157480315
 20
2.610862204724409
 30
0.0
 10
-5.703354330708661
 20
2.674748031496063
 30
0.0
 10
-5.681129921259843
 20
2.719192913385827
 30
0.0
 10
-5.681129921259843
 20
2.719192913385827
 30
0.0
 10
-5.625405511811024
 20
2.830641732283464
 30
0.0
 10
-5.688996062992126
 20
2.832594488188976
 30
0.0
 10
-5.69501968503937
 20
2.910858267716535
 30
0.0
 10
-5.69501968503937
 20
2.910858267716535
 30
0.0
 10
-5.697799212598425
 20
2.946968503937008
 30
0.0
 10
-5.681129921259843
 20
2.98863779527559
 30
0.0
 10
-5.693629921259842
 20
3.027523622047244
 30
0.0
 10
-5.693629921259842
 20
3.027523622047244
 30
0.0
 10
-5.706129921259842
 20
3.066413385826772
 30
0.0
 10
-5.747799212598426
 20
3.102527559055118
 30
0.0
 10
-5.825574803149606
 20
3.192803149606299
 30
0.0
 10
-5.825574803149606
 20
3.192803149606299
 30
0.0
 10
-5.903354330708662
 20
3.283082677165354
 30
0.0
 10
-6.017240157480315
 20
3.427527559055118
 30
0.0
 10
-6.12696062992126
 20
3.534472440944882
 30
0.0
 10
-6.12696062992126
 20
3.534472440944882
 30
0.0
 10
-6.236685039370078
 20
3.641417322834646
 30
0.0
 10
-6.342240157480315
 20
3.71086220472441
 30
0.0
 10
-6.435295275590551
 20
3.783082677165354
 30
0.0
 10
-6.435295275590551
 20
3.783082677165354
 30
0.0
 10
-6.528350393700787
 20
3.855307086614173
 30
0.0
 10
-6.608909448818897
 20
3.930307086614173
 30
0.0
 10
-6.696409448818898
 20
3.959472440944882
 30
0.0
 10
-6.696409448818898
 20
3.959472440944882
 30
0.0
 10
-6.783909448818898
 20
3.988641732283464
 30
0.0
 10
-6.878354330708661
 20
3.971972440944882
 30
0.0
 10
-6.981129921259843
 20
3.970582677165354
 30
0.0
 10
-6.981129921259843
 20
3.970582677165354
 30
0.0
 10
-7.083909448818898
 20
3.969196850393701
 30
0.0
 10
-7.19501968503937
 20
3.983082677165354
 30
0.0
 10
-7.288074803149606
 20
3.992803149606299
 30
0.0
 10
-7.288074803149606
 20
3.992803149606299
 30
0.0
 10
-7.515
 20
4.016511811023622
 30
0.0
 10
-7.540984251968504
 20
4.0163031496063
 30
0.0
 10
-7.740854330708661
 20
4.140027559055119
 30
0.0
 10
-7.740854330708661
 20
4.140027559055119
 30
0.0
 10
-7.870122047244094
 20
4.220047244094488
 30
0.0
 10
-8.131185039370079
 20
4.378062992125984
 30
0.0
 10
-8.181129921259842
 20
4.51363779527559
 30
0.0
 10
-8.181129921259842
 20
4.51363779527559
 30
0.0
 10
-8.200574803149607
 20
4.566417322834646
 30
0.0
 10
-8.186688976377953
 20
4.61086220472441
 30
0.0
 10
-8.139464566929133
 20
4.708082677165354
 30
0.0
 10
-8.139464566929133
 20
4.708082677165354
 30
0.0
 10
-8.051275590551182
 20
4.889649606299213
 30
0.0
 10
-7.900307086614173
 20
5.152637795275591
 30
0.0
 10
-7.835299212598425
 20
5.340027559055118
 30
0.0
 10
-7.835299212598425
 20
5.340027559055118
 30
0.0
 10
-7.811688976377953
 20
5.408086614173229
 30
0.0
 10
-7.800574803149606
 20
5.46086220472441
 30
0.0
 10
-7.724185039370079
 20
5.516417322834646
 30
0.0
 10
-7.724185039370079
 20
5.516417322834646
 30
0.0
 10
-7.647799212598425
 20
5.571976377952756
 30
0.0
 10
-7.506129921259842
 20
5.630307086614173
 30
0.0
 10
-7.365850393700788
 20
5.706696850393701
 30
0.0
 10
-7.365850393700788
 20
5.706696850393701
 30
0.0
 10
-7.225574803149606
 20
5.783086614173229
 30
0.0
 10
-7.086688976377952
 20
5.877531496062992
 30
0.0
 10
-6.98251968503937
 20
5.946976377952756
 30
0.0
 10
-6.98251968503937
 20
5.946976377952756
 30
0.0
 10
-6.878354330708661
 20
6.016421259842519
 30
0.0
 10
-6.808909448818897
 20
6.060862204724409
 30
0.0
 10
-6.693629921259842
 20
6.156696850393701
 30
0.0
 10
-6.693629921259842
 20
6.156696850393701
 30
0.0
 10
-6.578354330708661
 20
6.252531496062992
 30
0.0
 10
-6.417240157480315
 20
6.399751968503937
 30
0.0
 10
-6.313074803149607
 20
6.496972440944882
 30
0.0
 10
-6.313074803149607
 20
6.496972440944882
 30
0.0
 10
-6.208909448818898
 20
6.594196850393701
 30
0.0
 10
-6.161685039370079
 20
6.641421259842519
 30
0.0
 10
-6.110295275590551
 20
6.641421259842519
 30
0.0
 10
-6.110295275590551
 20
6.641421259842519
 30
0.0
 10
-6.058909448818897
 20
6.641421259842519
 30
0.0
 10
-6.003350393700788
 20
6.594196850393701
 30
0.0
 10
-5.965850393700787
 20
6.570586614173228
 30
0.0
 10
-5.965850393700787
 20
6.570586614173228
 30
0.0
 10
-5.928350393700788
 20
6.546976377952756
 30
0.0
 10
-5.908909448818898
 20
6.546976377952756
 30
0.0
 10
-5.838074803149606
 20
6.546976377952756
 30
0.0
 10
-5.838074803149606
 20
6.546976377952756
 30
0.0
 10
-5.838074803149606
 20
6.546976377952756
 30
0.0
 10
-5.275570866141733
 20
6.548366141732283
 30
0.0
 10
-5.275570866141733
 20
6.548366141732283
 30
0.0
 10
-5.275570866141733
 20
6.548366141732283
 30
0.0
 10
-5.200570866141732
 20
6.549755905511811
 30
0.0
 10
-5.136685039370079
 20
6.552531496062993
 30
0.0
 10
-5.090850393700787
 20
6.531696850393701
 30
0.0
 10
-5.090850393700787
 20
6.531696850393701
 30
0.0
 10
-5.045015748031496
 20
6.510866141732284
 30
0.0
 10
-5.017240157480315
 20
6.466421259842519
 30
0.0
 10
-4.970015748031496
 20
6.476141732283464
 30
0.0
 10
-4.970015748031496
 20
6.476141732283464
 30
0.0
 10
-4.922795275590551
 20
6.485866141732283
 30
0.0
 10
-4.856125984251968
 20
6.549751968503937
 30
0.0
 10
-4.820015748031496
 20
6.596972440944882
 30
0.0
 10
-4.820015748031496
 20
6.596972440944882
 30
0.0
 10
-4.783905511811024
 20
6.644196850393701
 30
0.0
 10
-4.778350393700787
 20
6.674755905511811
 30
0.0
 10
-4.729740157480315
 20
6.719200787401575
 30
0.0
 10
-4.729740157480315
 20
6.719200787401575
 30
0.0
 10
-4.651405511811023
 20
6.790822834645669
 30
0.0
 10
-4.345484251968504
 20
6.976791338582677
 30
0.0
 10
-4.246405511811024
 20
7.016421259842519
 30
0.0
 10
-4.246405511811024
 20
7.016421259842519
 30
0.0
 10
-4.183905511811024
 20
7.04142125984252
 30
0.0
 10
-4.153350393700787
 20
7.035866141732283
 30
0.0
 10
-4.142578740157481
 20
7.050795275590551
 30
0.0
 10
-4.142578740157481
 20
7.050795275590551
 30
0.0
 10
-4.131811023622047
 20
7.065724409448819
 30
0.0
 10
-4.140822834645669
 20
7.101141732283464
 30
0.0
 10
-4.125885826771653
 20
7.168846456692913
 30
0.0
 10
-4.125885826771653
 20
7.168846456692913
 30
0.0
 10
-4.110948818897638
 20
7.236555118110236
 30
0.0
 10
-4.07205905511811
 20
7.336555118110236
 30
0.0
 10
-4.052614173228346
 20
7.410165354330709
 30
0.0
 10
-4.052614173228346
 20
7.410165354330709
 30
0.0
 10
-4.012984251968504
 20
7.560185039370078
 30
0.0
 10
-4.044035433070866
 20
7.7851968503937
 30
0.0
 10
-3.98455905511811
 20
8.01016535433071
 30
0.0
 10
-3.98455905511811
 20
8.01016535433071
 30
0.0
 10
-3.952614173228346
 20
8.131
 30
0.0
 10
-3.89705905511811
 20
8.217114173228346
 30
0.0
 10
-3.827614173228346
 20
8.308779527559055
 30
0.0
 10
-3.827614173228346
 20
8.308779527559055
 30
0.0
 10
-3.68094094488189
 20
8.502385826771654
 30
0.0
 10
-3.468885826771654
 20
8.726413385826772
 30
0.0
 10
-3.204003937007874
 20
8.7685
 30
0.0
 10
-3.204003937007874
 20
8.7685
 30
0.0
 10
-3.055393700787401
 20
8.792114173228347
 30
0.0
 10
-2.877614173228347
 20
8.764334645669292
 30
0.0
 10
-2.677614173228346
 20
8.704610236220473
 30
0.0
 10
-2.677614173228346
 20
8.704610236220473
 30
0.0
 10
-2.477614173228346
 20
8.644889763779528
 30
0.0
 10
-2.255393700787402
 20
8.553224409448818
 30
0.0
 10
-2.127614173228347
 20
8.486555118110235
 30
0.0
 10
-2.127614173228347
 20
8.486555118110235
 30
0.0
 10
-1.999834645669291
 20
8.419889763779528
 30
0.0
 10
-1.966503937007874
 20
8.378220472440946
 30
0.0
 10
-1.933169291338583
 20
8.361555118110235
 30
0.0
 10
-1.933169291338583
 20
8.361555118110235
 30
0.0
 10
-1.899834645669291
 20
8.344889763779527
 30
0.0
 10
-1.866503937007874
 20
8.353220472440945
 30
0.0
 10
-1.817889763779527
 20
8.31294094488189
 30
0.0
 10
-1.817889763779527
 20
8.31294094488189
 30
0.0
 10
-1.769279527559055
 20
8.272665354330709
 30
0.0
 10
-1.705393700787402
 20
8.183779527559055
 30
0.0
 10
-1.681779527559055
 20
8.131
 30
0.0
 10
-1.681779527559055
 20
8.131
 30
0.0
 10
-1.642870078740158
 20
8.044027559055118
 30
0.0
 10
-1.716342519685039
 20
8.047775590551181
 30
0.0
 10
-1.712338582677165
 20
7.983775590551181
 30
0.0
 10
-1.712338582677165
 20
7.983775590551181
 30
0.0
 10
-1.710948818897638
 20
7.961555118110236
 30
0.0
 10
-1.69705905511811
 20
7.936555118110237
 30
0.0
 10
-1.679003937007874
 20
7.874055118110237
 30
0.0
 10
-1.679003937007874
 20
7.874055118110237
 30
0.0
 10
-1.660948818897638
 20
7.811555118110237
 30
0.0
 10
-1.638724409448819
 20
7.711555118110236
 30
0.0
 10
-1.623444881889764
 20
7.626830708661418
 30
0.0
 10
-1.623444881889764
 20
7.626830708661418
 30
0.0
 10
-1.592641732283465
 20
7.456011811023622
 30
0.0
 10
-1.600393700787402
 20
7.406559055118111
 30
0.0
 10
-1.492893700787401
 20
7.29905905511811
 30
0.0
 10
-1.492893700787401
 20
7.29905905511811
 30
0.0
 10
-1.391114173228347
 20
7.197279527559055
 30
0.0
 10
-1.363531496062992
 20
7.173027559055118
 30
0.0
 10
-1.48455905511811
 20
7.133775590551181
 30
0.0
 10
-1.48455905511811
 20
7.133775590551181
 30
0.0
 10
-1.535948818897638
 20
7.117110236220473
 30
0.0
 10
-1.605393700787402
 20
7.097669291338582
 30
0.0
 10
-1.688724409448819
 20
7.083779527559055
 30
0.0
 10
-1.688724409448819
 20
7.083779527559055
 30
0.0
 10
-1.77205905511811
 20
7.069889763779527
 30
0.0
 10
-1.869283464566929
 20
7.06155905511811
 30
0.0
 10
-1.915114173228347
 20
7.037944881889763
 30
0.0
 10
-1.915114173228347
 20
7.037944881889763
 30
0.0
 10
-1.960948818897638
 20
7.014334645669291
 30
0.0
 10
-1.955393700787402
 20
6.975444881889763
 30
0.0
 10
-1.94705905511811
 20
6.901830708661417
 30
0.0
 10
-1.94705905511811
 20
6.901830708661417
 30
0.0
 10
-1.938728346456693
 20
6.828220472440945
 30
0.0
 10
-1.927614173228346
 20
6.719889763779528
 30
0.0
 10
-1.935948818897638
 20
6.646275590551181
 30
0.0
 10
-1.935948818897638
 20
6.646275590551181
 30
0.0
 10
-1.955590551181102
 20
6.47278346456693
 30
0.0
 10
-2.055208661417323
 20
6.524228346456693
 30
0.0
 10
-1.835948818897638
 20
6.386555118110236
 30
0.0
 10
-1.835948818897638
 20
6.386555118110236
 30
0.0
 10
-1.711952755905512
 20
6.308696850393701
 30
0.0
 10
-1.222196850393701
 20
6.002606299212599
 30
0.0
 10
-1.109555118110236
 20
5.956
 30
0.0
 10
-1.109555118110236
 20
5.956
 30
0.0
 10
-1.069279527559055
 20
5.939334645669291
 30
0.0
 10
-1.055393700787401
 20
5.942110236220472
 30
0.0
 10
-1.041503937007874
 20
5.958775590551181
 30
0.0
 10
-1.041503937007874
 20
5.958775590551181
 30
0.0
 10
-1.014173228346457
 20
5.991570866141732
 30
0.0
 10
-0.989255905511811
 20
6.066826771653544
 30
0.0
 10
-0.8928937007874016
 20
5.890724409448818
 30
0.0
 10
-0.8928937007874016
 20
5.890724409448818
 30
0.0
 10
-0.8526141732283464
 20
5.817114173228346
 30
0.0
 10
-0.8053937007874016
 20
5.706
 30
0.0
 10
-0.7609488188976378
 20
5.639334645669291
 30
0.0
 10
-0.7609488188976378
 20
5.639334645669291
 30
0.0
 10
-0.6728740157480315
 20
5.507228346456693
 30
0.0
 10
-0.5916023622047244
 20
5.540905511811023
 30
0.0
 10
-0.4498346456692913
 20
5.596279527559055
 30
0.0
 10
-0.4498346456692913
 20
5.596279527559055
 30
0.0
 10
-0.3609488188976378
 20
5.631
 30
0.0
 10
-0.2303897637795276
 20
5.683779527559055
 30
0.0
 10
-0.1623346456692913
 20
5.735165354330709
 30
0.0
 10
-0.1623346456692913
 20
5.735165354330709
 30
0.0
 10
-0.0942795275590551
 20
5.786555118110236
 30
0.0
 10
-0.0887244094488189
 20
5.836555118110236
 30
0.0
 10
-0.0831692913385827
 20
5.879610236220472
 30
0.0
 10
-0.0831692913385827
 20
5.879610236220472
 30
0.0
 10
-0.067496062992126
 20
6.001082677165354
 30
0.0
 10
-0.0728937007874016
 20
5.99048031496063
 30
0.0
 10
-0.1901141732283465
 20
6.040720472440944
 30
0.0
 10
-0.1901141732283465
 20
6.040720472440944
 30
0.0
 10
-0.2581692913385827
 20
6.069889763779527
 30
0.0
 10
-0.3665
 20
6.119889763779527
 30
0.0
 10
-0.4276102362204725
 20
6.157389763779528
 30
0.0
 10
-0.4276102362204725
 20
6.157389763779528
 30
0.0
 10
-0.4887244094488189
 20
6.194889763779527
 30
0.0
 10
-0.5026141732283465
 20
6.219889763779528
 30
0.0
 10
-0.5151141732283464
 20
6.2685
 30
0.0
 10
-0.5151141732283464
 20
6.2685
 30
0.0
 10
-0.5616968503937008
 20
6.44965748031496
 30
0.0
 10
-0.5001417322834646
 20
6.744358267716535
 30
0.0
 10
-0.4123346456692913
 20
6.962944881889764
 30
0.0
 10
-0.4123346456692913
 20
6.962944881889764
 30
0.0
 10
-0.3470590551181102
 20
7.125444881889764
 30
0.0
 10
-0.2526141732283465
 20
7.281
 30
0.0
 10
-0.1456692913385827
 20
7.4185
 30
0.0
 10
-0.1456692913385827
 20
7.4185
 30
0.0
 10
-0.0387244094488189
 20
7.556
 30
0.0
 10
0.0807204724409449
 20
7.675444881889764
 30
0.0
 10
0.2487755905511811
 20
7.736555118110236
 30
0.0
 10
0.2487755905511811
 20
7.736555118110236
 30
0.0
 10
0.4168307086614173
 20
7.797669291338583
 30
0.0
 10
0.6335
 20
7.800444881889764
 30
0.0
 10
0.8265551181102362
 20
7.762944881889764
 30
0.0
 10
0.8265551181102362
 20
7.762944881889764
 30
0.0
 10
1.019610236220472
 20
7.725444881889763
 30
0.0
 10
1.189051181102362
 20
7.647669291338583
 30
0.0
 10
1.345996062992126
 20
7.536555118110236
 30
0.0
 10
1.345996062992126
 20
7.536555118110236
 30
0.0
 10
1.50294094488189
 20
7.425444881889764
 30
0.0
 10
1.647385826771653
 20
7.281
 30
0.0
 10
1.712661417322835
 20
7.124055118110237
 30
0.0
 10
1.712661417322835
 20
7.124055118110237
 30
0.0
 10
1.77794094488189
 20
6.967110236220472
 30
0.0
 10
1.764055118110236
 20
6.797669291338583
 30
0.0
 10
1.747385826771654
 20
6.646279527559055
 30
0.0
 10
1.747385826771654
 20
6.646279527559055
 30
0.0
 10
1.730720472440945
 20
6.494889763779527
 30
0.0
 10
1.711275590551181
 20
6.36155905511811
 30
0.0
 10
1.682106299212598
 20
6.242114173228346
 30
0.0
 10
1.682106299212598
 20
6.242114173228346
 30
0.0
 10
1.65294094488189
 20
6.122669291338583
 30
0.0
 10
1.614055118110236
 20
6.017110236220472
 30
0.0
 10
1.608496062992126
 20
5.960165354330709
 30
0.0
 10
1.608496062992126
 20
5.960165354330709
 30
0.0
 10
1.60294094488189
 20
5.903220472440945
 30
0.0
 10
1.630720472440945
 20
5.894889763779528
 30
0.0
 10
1.645996062992126
 20
5.878220472440945
 30
0.0
 10
1.645996062992126
 20
5.878220472440945
 30
0.0
 10
1.668822834645669
 20
5.853314960629922
 30
0.0
 10
1.668452755905512
 20
5.774803149606299
 30
0.0
 10
1.798775590551181
 20
5.832389763779528
 30
0.0
 10
1.798775590551181
 20
5.832389763779528
 30
0.0
 10
1.8585
 20
5.858779527559055
 30
0.0
 10
1.941830708661417
 20
5.914334645669292
 30
0.0
 10
1.997385826771654
 20
5.926834645669292
 30
0.0
 10
1.997385826771654
 20
5.926834645669292
 30
0.0
 10
2.05294094488189
 20
5.939334645669291
 30
0.0
 10
2.080720472440945
 20
5.908779527559055
 30
0.0
 10
2.130720472440945
 20
5.878224409448819
 30
0.0
 10
2.130720472440945
 20
5.878224409448819
 30
0.0
 10
2.212141732283464
 20
5.828468503937008
 30
0.0
 10
2.382011811023622
 20
5.763633858267717
 30
0.0
 10
2.470996062992126
 20
5.792110236220473
 30
0.0
 10
2.470996062992126
 20
5.792110236220473
 30
0.0
 10
2.570413385826772
 20
5.823925196850394
 30
0.0
 10
2.490688976377953
 20
5.949110236220473
 30
0.0
 10
2.720996062992126
 20
6.0435
 30
0.0
 10
2.720996062992126
 20
6.0435
 30
0.0
 10
2.805720472440945
 20
6.078224409448818
 30
0.0
 10
2.936275590551181
 20
6.111555118110236
 30
0.0
 10
3.005720472440945
 20
6.144889763779528
 30
0.0
 10
3.005720472440945
 20
6.144889763779528
 30
0.0
 10
3.075165354330708
 20
6.178224409448819
 30
0.0
 10
3.083496062992126
 20
6.211555118110236
 30
0.0
 10
3.101551181102362
 20
6.240720472440945
 30
0.0
 10
3.101551181102362
 20
6.240720472440945
 30
0.0
 10
3.13340157480315
 20
6.292169291338583
 30
0.0
 10
3.201893700787402
 20
6.334598425196851
 30
0.0
 10
3.193216535433071
 20
6.349055118110236
 30
0.0
 10
3.193216535433071
 20
6.349055118110236
 30
0.0
 10
3.182173228346457
 20
6.367452755905512
 30
0.0
 10
3.147279527559055
 20
6.342444881889763
 30
0.0
 10
3.143566929133858
 20
6.453917322834646
 30
0.0
 10
3.143566929133858
 20
6.453917322834646
 30
0.0
 10
3.140574803149606
 20
6.543688976377953
 30
0.0
 10
3.149507874015748
 20
6.5525
 30
0.0
 10
3.110933070866142
 20
6.54453937007874
 30
0.0
 10
3.110933070866142
 20
6.54453937007874
 30
0.0
 10
3.064346456692913
 20
6.534925196850394
 30
0.0
 10
3.010106299212599
 20
6.516944881889764
 30
0.0
 10
2.974472440944882
 20
6.543149606299212
 30
0.0
 10
2.974472440944882
 20
6.543149606299212
 30
0.0
 10
2.933728346456693
 20
6.573110236220472
 30
0.0
 10
2.962208661417323
 20
6.629842519685039
 30
0.0
 10
2.974125984251969
 20
6.711555118110236
 30
0.0
 10
2.974125984251969
 20
6.711555118110236
 30
0.0
 10
2.981417322834646
 20
6.761555118110236
 30
0.0
 10
2.983503937007874
 20
6.817803149606299
 30
0.0
 10
2.977948818897638
 20
6.844885826771653
 30
0.0
 10
2.977948818897638
 20
6.844885826771653
 30
0.0
 10
2.972393700787402
 20
6.871972440944882
 30
0.0
 10
2.959196850393701
 20
6.869885826771654
 30
0.0
 10
2.925862204724409
 20
6.874748031496063
 30
0.0
 10
2.925862204724409
 20
6.874748031496063
 30
0.0
 10
2.838838582677165
 20
6.88744094488189
 30
0.0
 10
2.68813779527559
 20
6.934291338582677
 30
0.0
 10
2.614401574803149
 20
6.997665354330708
 30
0.0
 10
2.614401574803149
 20
6.997665354330708
 30
0.0
 10
2.572389763779527
 20
7.033775590551181
 30
0.0
 10
2.552944881889764
 20
7.076834645669291
 30
0.0
 10
2.550511811023622
 20
7.143153543307086
 30
0.0
 10
2.550511811023622
 20
7.143153543307086
 30
0.0
 10
2.54807874015748
 20
7.209472440944882
 30
0.0
 10
2.562653543307087
 20
7.299055118110236
 30
0.0
 10
2.608830708661417
 20
7.392456692913385
 30
0.0
 10
2.608830708661417
 20
7.392456692913385
 30
0.0
 10
2.655011811023622
 20
7.485858267716536
 30
0.0
 10
2.732787401574803
 20
7.583082677165354
 30
0.0
 10
2.777232283464567
 20
7.654610236220472
 30
0.0
 10
2.777232283464567
 20
7.654610236220472
 30
0.0
 10
2.821677165354331
 20
7.726137795275591
 30
0.0
 10
2.832791338582677
 20
7.771968503937008
 30
0.0
 10
2.835566929133858
 20
7.859468503937008
 30
0.0
 10
2.835566929133858
 20
7.859468503937008
 30
0.0
 10
2.838346456692913
 20
7.946968503937008
 30
0.0
 10
2.832787401574803
 20
8.07613779527559
 30
0.0
 10
2.886952755905512
 20
8.19766535433071
 30
0.0
 10
2.886952755905512
 20
8.19766535433071
 30
0.0
 10
2.941122047244094
 20
8.319192913385827
 30
0.0
 10
3.055011811023622
 20
8.433082677165354
 30
0.0
 10
3.183484251968504
 20
8.517110236220473
 30
0.0
 10
3.183484251968504
 20
8.517110236220473
 30
0.0
 10
3.311956692913386
 20
8.60113779527559
 30
0.0
 10
3.455011811023622
 20
8.655307086614172
 30
0.0
 10
3.597370078740158
 20
8.702527559055119
 30
0.0
 10
3.597370078740158
 20
8.702527559055119
 30
0.0
 10
3.882996062992126
 20
8.797267716535433
 30
0.0
 10
4.197106299212598
 20
8.867893700787402
 30
0.0
 10
4.489732283464567
 20
8.733775590551181
 30
0.0
 10
4.489732283464567
 20
8.733775590551181
 30
0.0
 10
4.724066929133858
 20
8.62637401574803
 30
0.0
 10
5.001594488188976
 20
8.342334645669292
 30
0.0
 10
5.100149606299213
 20
8.134472440944881
 30
0.0
 10
5.100149606299213
 20
8.134472440944881
 30
0.0
 10
5.171996062992126
 20
7.982944881889764
 30
0.0
 10
5.141787401574804
 20
7.851244094488189
 30
0.0
 10
5.173070866141733
 20
7.753913385826771
 30
0.0
 10
5.173070866141733
 20
7.753913385826771
 30
0.0
 10
5.185570866141732
 20
7.715023622047244
 30
0.0
 10
5.20640157480315
 20
7.708082677165354
 30
0.0
 10
5.227929133858268
 20
7.687940944881889
 30
0.0
 10
5.227929133858268
 20
7.687940944881889
 30
0.0
 10
5.300830708661417
 20
7.619740157480315
 30
0.0
 10
5.276543307086614
 20
7.529200787401575
 30
0.0
 10
5.240429133858267
 20
7.429606299212598
 30
0.0
 10
5.240429133858267
 20
7.429606299212598
 30
0.0
 10
5.217515748031496
 20
7.366413385826772
 30
0.0
 10
5.186956692913386
 20
7.294192913385827
 30
0.0
 10
5.15640157480315
 20
7.24557874015748
 30
0.0
 10
5.15640157480315
 20
7.24557874015748
 30
0.0
 10
5.125846456692913
 20
7.196968503937008
 30
0.0
 10
5.095291338582677
 20
7.171968503937008
 30
0.0
 10
5.093208661417322
 20
7.154606299212598
 30
0.0
 10
5.093208661417322
 20
7.154606299212598
 30
0.0
 10
5.091125984251969
 20
7.137248031496063
 30
0.0
 10
5.117511811023622
 20
7.127523622047244
 30
0.0
 10
5.152232283464567
 20
7.102523622047245
 30
0.0
 10
5.152232283464567
 20
7.102523622047245
 30
0.0
 10
5.222551181102363
 20
7.051893700787401
 30
0.0
 10
5.3265
 20
6.934354330708661
 30
0.0
 10
5.370291338582677
 20
6.90807874015748
 30
0.0
 10
5.370291338582677
 20
6.90807874015748
 30
0.0
 10
5.398070866141732
 20
6.891413385826771
 30
0.0
 10
5.41890157480315
 20
6.894192913385827
 30
0.0
 10
5.470291338582677
 20
6.893496062992126
 30
0.0
 10
5.470291338582677
 20
6.893496062992126
 30
0.0
 10
5.569685039370079
 20
6.892153543307087
 30
0.0
 10
5.862220472440945
 20
6.877444881889764
 30
0.0
 10
5.956385826771654
 20
6.8435
 30
0.0
 10
5.956385826771654
 20
6.8435
 30
0.0
 10
6.016106299212598
 20
6.821972440944882
 30
0.0
 10
6.029996062992126
 20
6.788641732283464
 30
0.0
 10
6.042496062992126
 20
6.737251968503937
 30
0.0
 10
6.042496062992126
 20
6.737251968503937
 30
0.0
 10
6.054996062992126
 20
6.685862204724409
 30
0.0
 10
6.066110236220473
 20
6.616417322834645
 30
0.0
 10
6.109165354330709
 20
6.577527559055119
 30
0.0
 10
6.109165354330709
 20
6.577527559055119
 30
0.0
 10
6.152220472440945
 20
6.538637795275591
 30
0.0
 10
6.227220472440945
 20
6.530307086614173
 30
0.0
 10
6.267496062992126
 20
6.506692913385827
 30
0.0
 10
6.267496062992126
 20
6.506692913385827
 30
0.0
 10
6.307775590551181
 20
6.483082677165354
 30
0.0
 10
6.313330708661417
 20
6.444192913385827
 30
0.0
 10
6.341106299212599
 20
6.416413385826772
 30
0.0
 10
6.341106299212599
 20
6.416413385826772
 30
0.0
 10
6.368885826771653
 20
6.38863779527559
 30
0.0
 10
6.418885826771653
 20
6.371968503937008
 30
0.0
 10
6.492496062992126
 20
6.341413385826772
 30
0.0
 10
6.492496062992126
 20
6.341413385826772
 30
0.0
 10
6.566106299212598
 20
6.310858267716536
 30
0.0
 10
6.663330708661418
 20
6.266417322834646
 30
0.0
 10
6.723051181102362
 20
6.237248031496063
 30
0.0
 10
6.723051181102362
 20
6.237248031496063
 30
0.0
 10
6.782775590551181
 20
6.208082677165354
 30
0.0
 10
6.804996062992126
 20
6.194192913385827
 30
0.0
 10
6.816106299212598
 20
6.206692913385827
 30
0.0
 10
6.816106299212598
 20
6.206692913385827
 30
0.0
 10
6.841188976377953
 20
6.234909448818898
 30
0.0
 10
6.806688976377953
 20
6.318598425196851
 30
0.0
 10
6.90638188976378
 20
6.328913385826771
 30
0.0
 10
6.90638188976378
 20
6.328913385826771
 30
0.0
 10
6.946661417322835
 20
6.333082677165354
 30
0.0
 10
7.007775590551181
 20
6.327527559055119
 30
0.0
 10
7.054996062992126
 20
6.308082677165355
 30
0.0
 10
7.054996062992126
 20
6.308082677165355
 30
0.0
 10
7.102220472440945
 20
6.288637795275591
 30
0.0
 10
7.135551181102362
 20
6.255307086614173
 30
0.0
 10
7.218885826771653
 20
6.18863779527559
 30
0.0
 10
7.218885826771653
 20
6.18863779527559
 30
0.0
 10
7.302220472440945
 20
6.121972440944882
 30
0.0
 10
7.435551181102362
 20
6.021972440944882
 30
0.0
 10
7.49944094488189
 20
5.960858267716535
 30
0.0
 10
7.49944094488189
 20
5.960858267716535
 30
0.0
 10
7.563330708661417
 20
5.899748031496063
 30
0.0
 10
7.557775590551181
 20
5.877527559055118
 30
0.0
 10
7.543885826771653
 20
5.838637795275591
 30
0.0
 10
7.543885826771653
 20
5.838637795275591
 30
0.0
 10
7.53
 20
5.799748031496063
 30
0.0
 10
7.507775590551181
 20
5.744192913385826
 30
0.0
 10
7.485551181102363
 20
5.619192913385826
 30
0.0
 10
7.485551181102363
 20
5.619192913385826
 30
0.0
 10
7.455535433070867
 20
5.450362204724409
 30
0.0
 10
7.39859842519685
 20
5.000307086614173
 30
0.0
 10
7.442496062992126
 20
4.848358267716535
 30
0.0
 10
7.442496062992126
 20
4.848358267716535
 30
0.0
 10
7.480921259842519
 20
4.71536220472441
 30
0.0
 10
7.596814960629922
 20
4.734748031496063
 30
0.0
 10
7.717496062992126
 20
4.587248031496063
 30
0.0
 10
7.717496062992126
 20
4.587248031496063
 30
0.0
 10
7.779996062992126
 20
4.510858267716536
 30
0.0
 10
7.841110236220472
 20
4.391413385826771
 30
0.0
 10
7.93694094488189
 20
4.206688976377952
 30
0.0
 10
7.93694094488189
 20
4.206688976377952
 30
0.0
 10
8.03277559055118
 20
4.021968503937008
 30
0.0
 10
8.163326771653542
 20
3.771972440944882
 30
0.0
 10
8.250826771653543
 20
3.566417322834646
 30
0.0
 10
8.250826771653543
 20
3.566417322834646
 30
0.0
 10
8.338326771653543
 20
3.360862204724409
 30
0.0
 10
8.382771653543307
 20
3.199748031496063
 30
0.0
 10
8.360547244094489
 20
3.044192913385827
 30
0.0
 10
8.360547244094489
 20
3.044192913385827
 30
0.0
 10
8.338326771653543
 20
2.88863779527559
 30
0.0
 10
8.249437007874016
 20
2.73863779527559
 30
0.0
 10
8.135547244094488
 20
2.646968503937008
 30
0.0
 10
8.135547244094488
 20
2.646968503937008
 30
0.0
 10
8.02165748031496
 20
2.555303149606299
 30
0.0
 10
7.882771653543307
 20
2.521972440944882
 30
0.0
 10
7.710547244094488
 20
2.471972440944882
 30
0.0
 10
7.710547244094488
 20
2.471972440944882
 30
0.0
 10
7.538326771653543
 20
2.421972440944882
 30
0.0
 10
7.332771653543307
 20
2.355303149606299
 30
0.0
 10
7.199437007874016
 20
2.305303149606299
 30
0.0
 10
7.199437007874016
 20
2.305303149606299
 30
0.0
 10
7.066106299212598
 20
2.255303149606299
 30
0.0
 10
7.004992125984252
 20
2.221972440944882
 30
0.0
 10
6.954992125984252
 20
2.174748031496063
 30
0.0
 10
6.954992125984252
 20
2.174748031496063
 30
0.0
 10
6.904992125984252
 20
2.127527559055118
 30
0.0
 10
6.866102362204725
 20
2.066413385826772
 30
0.0
 10
6.849433070866142
 20
2.027523622047244
 30
0.0
 10
6.849433070866142
 20
2.027523622047244
 30
0.0
 10
6.783956692913386
 20
1.874759842519685
 30
0.0
 10
7.106956692913386
 20
2.146425196850394
 30
0.0
 10
7.343877952755905
 20
2.055303149606299
 30
0.0
 10
7.343877952755905
 20
2.055303149606299
 30
0.0
 10
7.416102362204724
 20
2.027527559055118
 30
0.0
 10
7.471661417322835
 20
1.966413385826772
 30
0.0
 10
7.521661417322835
 20
1.885858267716535
 30
0.0
 10
7.521661417322835
 20
1.885858267716535
 30
0.0
 10
7.571661417322835
 20
1.805303149606299
 30
0.0
 10
7.616102362204725
 20
1.705303149606299
 30
0.0
 10
7.613322834645669
 20
1.58307874015748
 30
0.0
 10
7.613322834645669
 20
1.58307874015748
 30
0.0
 10
7.610547244094488
 20
1.460858267716535
 30
0.0
 10
7.560543307086614
 20
1.316417322834646
 30
0.0
 10
7.493877952755906
 20
1.127527559055118
 30
0.0
 10
7.493877952755906
 20
1.127527559055118
 30
0.0
 10
7.460389763779528
 20
1.032649606299213
 30
0.0
 10
7.422700787401575
 20
0.9265472440944882
 30
0.0
 10
7.383972440944881
 20
0.8236771653543307
 30
0.0
 10
7.383972440944881
 20
0.8236771653543307
 30
0.0
 10
7.30688188976378
 20
0.6188818897637796
 30
0.0
 10
7.317161417322835
 20
0.6065629921259843
 30
0.0
 10
7.187759842519685
 20
0.6105
 30
0.0
 10
7.187759842519685
 20
0.6105
 30
0.0
 10
7.12298031496063
 20
0.6124606299212598
 30
0.0
 10
7.108413385826772
 20
0.6283267716535433
 30
0.0
 10
7.145271653543307
 20
0.5834685039370079
 30
0.0
 10
7.145271653543307
 20
0.5834685039370079
 30
0.0
 10
7.221141732283464
 20
0.4910944881889764
 30
0.0
 10
7.259082677165354
 20
0.373988188976378
 30
0.0
 10
7.259082677165354
 20
0.2321338582677165
 30
0.0
 10
7.259082677165354
 20
0.2321338582677165
 30
0.0
 10
7.259082677165354
 20
0.2321338582677165
 30
0.0
 10
7.259082677165354
 20
-0.2676417322834646
 30
0.0
 10
7.259082677165354
 20
-0.2676417322834646
 30
0.0
 10
7.259082677165354
 20
-0.2676417322834646
 30
0.0
 10
7.259082677165354
 20
-0.2676417322834646
 30
0.0
 10
6.873114173228347
 20
-0.2676417322834646
 30
0.0
 10
6.873114173228347
 20
-0.2676417322834646
 30
0.0
 10
6.873114173228347
 20
-0.2676417322834646
 30
0.0
 10
6.873114173228347
 20
-0.2676417322834646
 30
0.0
 10
6.873114173228347
 20
0.2915118110236221
 30
0.0
 10
6.873114173228347
 20
0.2915118110236221
 30
0.0
 10
6.873114173228347
 20
0.2915118110236221
 30
0.0
 10
6.873114173228347
 20
0.3607913385826771
 30
0.0
 10
6.851669291338583
 20
0.3954291338582677
 30
0.0
 10
6.808787401574803
 20
0.3954291338582677
 30
0.0
 10
6.808787401574803
 20
0.3954291338582677
 30
0.0
 10
6.762602362204724
 20
0.3954291338582677
 30
0.0
 10
6.739511811023622
 20
0.3607913385826771
 30
0.0
 10
6.739511811023622
 20
0.2915118110236221
 30
0.0
 10
6.739511811023622
 20
0.2915118110236221
 30
0.0
 10
6.739511811023622
 20
0.2915118110236221
 30
0.0
 10
6.739511811023622
 20
-0.425992125984252
 30
0.0
 10
6.739511811023622
 20
-0.425992125984252
 30
0.0
 10
6.739511811023622
 20
-0.425992125984252
 30
0.0
 10
6.739511811023622
 20
-0.4523897637795276
 30
0.0
 10
6.743633858267716
 20
-0.4763031496062992
 30
0.0
 10
6.751881889763779
 20
-0.497740157480315
 30
0.0
 10
6.751881889763779
 20
-0.497740157480315
 30
0.0
 10
6.760125984251968
 20
-0.5191850393700788
 30
0.0
 10
6.775799212598425
 20
-0.5406299212598425
 30
0.0
 10
6.798889763779528
 20
-0.5620669291338583
 30
0.0
 10
6.798889763779528
 20
-0.5620669291338583
 30
0.0
 10
6.821984251968504
 20
-0.583511811023622
 30
0.0
 10
6.850842519685039
 20
-0.6074330708661417
 30
0.0
 10
6.885488188976378
 20
-0.6338228346456692
 30
0.0
 10
6.885488188976378
 20
-0.6338228346456692
 30
0.0
 10
6.920122047244094
 20
-0.6602165354330709
 30
0.0
 10
6.965484251968504
 20
-0.6915511811023622
 30
0.0
 10
7.021566929133858
 20
-0.7278385826771654
 30
0.0
 10
7.021566929133858
 20
-0.7278385826771654
 30
0.0
 10
7.09413779527559
 20
-0.7740236220472441
 30
0.0
 10
7.151870078740157
 20
-0.8325826771653543
 30
0.0
 10
7.194755905511811
 20
-0.903503937007874
 30
0.0
 10
7.194755905511811
 20
-0.903503937007874
 30
0.0
 10
7.237641732283465
 20
-0.9744370078740158
 30
0.0
 10
7.259082677165354
 20
-1.062677165354331
 30
0.0
 10
7.259082677165354
 20
-1.168244094488189
 30
0.0
 10
7.259082677165354
 20
-1.168244094488189
 30
0.0
 10
7.259082677165354
 20
-1.168244094488189
 30
0.0
 10
7.259082677165354
 20
-1.895645669291339
 30
0.0
 10
7.259082677165354
 20
-1.895645669291339
 30
0.0
 10
7.259082677165354
 20
-1.895645669291339
 30
0.0
 10
7.259082677165354
 20
-2.044094488188976
 30
0.0
 10
7.220322834645669
 20
-2.166157480314961
 30
0.0
 10
7.142799212598425
 20
-2.261826771653543
 30
0.0
 10
7.142799212598425
 20
-2.261826771653543
 30
0.0
 10
7.065275590551181
 20
-2.357492125984252
 30
0.0
 10
6.953937007874016
 20
-2.405322834645669
 30
0.0
 10
6.808787401574803
 20
-2.405322834645669
 30
0.0
 10
6.808787401574803
 20
-2.405322834645669
 30
0.0
 10
6.660338582677165
 20
-2.405322834645669
 30
0.0
 10
6.547346456692914
 20
-2.357492125984252
 30
0.0
 10
6.469826771653543
 20
-2.260992125984252
 30
0.0
 10
6.469826771653543
 20
-2.260992125984252
 30
0.0
 10
6.392299212598425
 20
-2.165330708661418
 30
0.0
 10
6.353543307086614
 20
-2.042444881889764
 30
0.0
 10
6.353543307086614
 20
-1.893173228346457
 30
0.0
 10
6.353543307086614
 20
-1.893173228346457
 30
0.0
 10
6.353543307086614
 20
-1.893173228346457
 30
0.0
 10
6.353543307086614
 20
-1.415661417322835
 30
0.0
 10
6.353543307086614
 20
-1.415661417322835
 30
0.0
 10
6.353543307086614
 20
-1.415661417322835
 30
0.0
 10
6.353543307086614
 20
-1.415661417322835
 30
0.0
 10
6.739511811023622
 20
-1.415661417322835
 30
0.0
 10
6.739511811023622
 20
-1.415661417322835
 30
0.0
 10
6.739511811023622
 20
-1.415661417322835
 30
0.0
 10
6.739511811023622
 20
-1.415661417322835
 30
0.0
 10
6.739511811023622
 20
-1.959972440944882
 30
0.0
 10
6.739511811023622
 20
-1.959972440944882
 30
0.0
 10
6.739511811023622
 20
-1.959972440944882
 30
0.0
 10
6.739511811023622
 20
-1.986370078740157
 30
0.0
 10
6.744456692913386
 20
-2.00946062992126
 30
0.0
 10
6.754354330708662
 20
-2.029251968503937
 30
0.0
 10
6.754354330708662
 20
-2.029251968503937
 30
0.0
 10
6.764251968503937
 20
-2.049043307086614
 30
0.0
 10
6.782393700787401
 20
-2.058937007874016
 30
0.0
 10
6.808787401574803
 20
-2.058937007874016
 30
0.0
 10
6.808787401574803
 20
-2.058937007874016
 30
0.0
 10
6.851669291338583
 20
-2.058937007874016
 30
0.0
 10
6.873114173228347
 20
-2.025948818897638
 30
0.0
 10
6.873114173228347
 20
-1.959972440944882
 30
0.0
 10
6.873114173228347
 20
-1.959972440944882
 30
0.0
 10
6.873114173228347
 20
-1.959972440944882
 30
0.0
 10
6.873114173228347
 20
-1.247413385826772
 30
0.0
 10
6.873114173228347
 20
-1.247413385826772
 30
0.0
 10
6.873114173228347
 20
-1.247413385826772
 30
0.0
 10
6.873114173228347
 20
-1.175665354330709
 30
0.0
 10
6.854145669291339
 20
-1.118759842519685
 30
0.0
 10
6.816208661417323
 20
-1.07751968503937
 30
0.0
 10
6.816208661417323
 20
-1.07751968503937
 30
0.0
 10
6.778267716535433
 20
-1.036287401574803
 30
0.0
 10
6.708169291338582
 20
-0.9810314960629921
 30
0.0
 10
6.605905511811024
 20
-0.911751968503937
 30
0.0
 10
6.605905511811024
 20
-0.911751968503937
 30
0.0
 10
6.536629921259842
 20
-0.8663937007874015
 30
0.0
 10
6.477248031496063
 20
-0.8103110236220472
 30
0.0
 10
6.427767716535433
 20
-0.7443346456692913
 30
0.0
 10
6.427767716535433
 20
-0.7443346456692913
 30
0.0
 10
6.37828346456693
 20
-0.6783582677165354
 30
0.0
 10
6.353543307086614
 20
-0.5958858267716536
 30
0.0
 10
6.353543307086614
 20
-0.497740157480315
 30
0.0
 10
6.353543307086614
 20
-0.497740157480315
 30
0.0
 10
6.353543307086614
 20
-0.497740157480315
 30
0.0
 10
6.353543307086614
 20
0.2329606299212598
 30
0.0
 10
6.353543307086614
 20
0.2329606299212598
 30
0.0
 10
6.353543307086614
 20
0.2329606299212598
 30
0.0
 10
6.353543307086614
 20
0.3781102362204725
 30
0.0
 10
6.394775590551181
 20
0.4960472440944882
 30
0.0
 10
6.477248031496063
 20
0.5859370078740157
 30
0.0
 10
6.477248031496063
 20
0.5859370078740157
 30
0.0
 10
6.486165354330709
 20
0.595748031496063
 30
0.0
 10
6.495433070866142
 20
0.6050314960629921
 30
0.0
 10
6.505047244094488
 20
0.6137795275590551
 30
0.0
 10
6.505047244094488
 20
0.6137795275590551
 30
0.0
 10
6.505047244094488
 20
0.6137795275590551
 30
0.0
 10
6.112515748031496
 20
0.6137795275590551
 30
0.0
 10
6.112515748031496
 20
0.6137795275590551
 30
0.0
  0
SPLINE
  5
71
330
1F
100
AcDbEntity
  8
Layer 1
 62
   250
370
    18
100
AcDbSpline
210
0.0
220
0.0
230
1.0
 70
    11
 71
     3
 72
    16
 73
    12
 74
     0
 42
0.000000001
 43
0.0000000001
 40
0.0
 40
0.0
 40
0.0
 40
0.0
 40
0.25
 40
0.25
 40
0.25
 40
0.25
 40
0.5
 40
0.5
 40
0.5
 40
0.5
 40
1.0
 40
1.0
 40
1.0
 40
1.0
 10
-4.539425196850393
 20
0.6137795275590551
 30
0.0
 10
-4.539425196850393
 20
0.6137795275590551
 30
0.0
 10
-4.911326771653544
 20
0.6137795275590551
 30
0.0
 10
-4.911326771653544
 20
0.6137795275590551
 30
0.0
 10
-4.911326771653544
 20
0.6137795275590551
 30
0.0
 10
-4.911326771653544
 20
0.6137795275590551
 30
0.0
 10
-4.539425196850393
 20
-0.9915472440944881
 30
0.0
 10
-4.539425196850393
 20
-0.9915472440944881
 30
0.0
 10
-4.539425196850393
 20
-0.9915472440944881
 30
0.0
 10
-4.539425196850393
 20
-0.9915472440944881
 30
0.0
 10
-4.539425196850393
 20
0.6137795275590551
 30
0.0
 10
-4.539425196850393
 20
0.6137795275590551
 30
0.0
  0
SPLINE
  5
72
330
1F
100
AcDbEntity
  8
Layer 1
 62
   250
370
    18
100
AcDbSpline
210
0.0
220
0.0
230
1.0
 70
    11
 71
     3
 72
    20
 73
    16
 74
     0
 42
0.000000001
 43
0.0000000001
 40
0.0
 40
0.0
 40
0.0
 40
0.0
 40
0.2
 40
0.2
 40
0.2
 40
0.2
 40
0.4
 40
0.4
 40
0.4
 40
0.4
 40
0.6
 40
0.6
 40
0.6
 40
0.6
 40
1.0
 40
1.0
 40
1.0
 40
1.0
 10
3.775468503937008
 20
0.6137795275590551
 30
0.0
 10
3.775468503937008
 20
0.6137795275590551
 30
0.0
 10
3.909070866141732
 20
0.6137795275590551
 30
0.0
 10
3.909070866141732
 20
0.6137795275590551
 30
0.0
 10
3.909070866141732
 20
0.6137795275590551
 30
0.0
 10
3.909070866141732
 20
0.6137795275590551
 30
0.0
 10
3.909070866141732
 20
-0.6387677165354331
 30
0.0
 10
3.909070866141732
 20
-0.6387677165354331
 30
0.0
 10
3.909070866141732
 20
-0.6387677165354331
 30
0.0
 10
3.909070866141732
 20
-0.6387677165354331
 30
0.0
 10
3.775468503937008
 20
-0.6387677165354331
 30
0.0
 10
3.775468503937008
 20
-0.6387677165354331
 30
0.0
 10
3.775468503937008
 20
-0.6387677165354331
 30
0.0
 10
3.775468503937008
 20
-0.6387677165354331
 30
0.0
 10
3.775468503937008
 20
0.6137795275590551
 30
0.0
 10
3.775468503937008
 20
0.6137795275590551
 30
0.0
  0
SPLINE
  5
73
330
1F
100
AcDbEntity
  8
Layer 1
 62
   250
370
    18
100
AcDbSpline
210
0.0
220
0.0
230
1.0
 70
    11
 71
     3
 72
    88
 73
    84
 74
     0
 42
0.000000001
 43
0.0000000001
 40
0.0
 40
0.0
 40
0.0
 40
0.0
 40
0.0454545454545455
 40
0.0454545454545455
 40
0.0454545454545455
 40
0.0454545454545455
 40
0.0909090909090909
 40
0.0909090909090909
 40
0.0909090909090909
 40
0.0909090909090909
 40
0.1363636363636364
 40
0.1363636363636364
 40
0.1363636363636364
 40
0.1363636363636364
 40
0.1818181818181818
 40
0.1818181818181818
 40
0.1818181818181818
 40
0.1818181818181818
 40
0.2272727272727273
 40
0.2272727272727273
 40
0.2272727272727273
 40
0.2272727272727273
 40
0.2727272727272727
 40
0.2727272727272727
 40
0.2727272727272727
 40
0.2727272727272727
 40
0.3181818181818182
 40
0.3181818181818182
 40
0.3181818181818182
 40
0.3181818181818182
 40
0.3636363636363636
 40
0.3636363636363636
 40
0.3636363636363636
 40
0.3636363636363636
 40
0.4090909090909091
 40
0.4090909090909091
 40
0.4090909090909091
 40
0.4090909090909091
 40
0.4545454545454545
 40
0.4545454545454545
 40
0.4545454545454545
 40
0.4545454545454545
 40
0.5
 40
0.5
 40
0.5
 40
0.5
 40
0.5454545454545454
 40
0.5454545454545454
 40
0.5454545454545454
 40
0.5454545454545454
 40
0.5909090909090909
 40
0.5909090909090909
 40
0.5909090909090909
 40
0.5909090909090909
 40
0.6363636363636364
 40
0.6363636363636364
 40
0.6363636363636364
 40
0.6363636363636364
 40
0.6818181818181818
 40
0.6818181818181818
 40
0.6818181818181818
 40
0.6818181818181818
 40
0.7272727272727273
 40
0.7272727272727273
 40
0.7272727272727273
 40
0.7272727272727273
 40
0.7727272727272727
 40
0.7727272727272727
 40
0.7727272727272727
 40
0.7727272727272727
 40
0.8181818181818182
 40
0.8181818181818182
 40
0.8181818181818182
 40
0.8181818181818182
 40
0.8636363636363636
 40
0.8636363636363636
 40
0.8636363636363636
 40
0.8636363636363636
 40
0.9090909090909091
 40
0.9090909090909091
 40
0.9090909090909091
 40
0.9090909090909091
 40
1.0
 40
1.0
 40
1.0
 40
1.0
 10
1.923055118110236
 20
2.337240157480315
 30
0.0
 10
1.946665354330709
 20
2.384464566929134
 30
0.0
 10
1.995279527559055
 20
2.463633858267717
 30
0.0
 10
2.036251968503937
 20
2.510161417322835
 30
0.0
 10
2.036251968503937
 20
2.510161417322835
 30
0.0
 10
2.077224409448819
 20
2.556688976377953
 30
0.0
 10
2.110555118110236
 20
2.57057874015748
 30
0.0
 10
2.195275590551181
 20
2.603909448818898
 30
0.0
 10
2.195275590551181
 20
2.603909448818898
 30
0.0
 10
2.28
 20
2.637244094488189
 30
0.0
 10
2.416114173228347
 20
2.690023622047244
 30
0.0
 10
2.534169291338582
 20
2.74557874015748
 30
0.0
 10
2.534169291338582
 20
2.74557874015748
 30
0.0
 10
2.652224409448819
 20
2.801133858267717
 30
0.0
 10
2.752224409448819
 20
2.859468503937008
 30
0.0
 10
2.805696850393701
 20
2.883771653543307
 30
0.0
 10
2.805696850393701
 20
2.883771653543307
 30
0.0
 10
2.859169291338583
 20
2.90807874015748
 30
0.0
 10
2.866114173228346
 20
2.898358267716536
 30
0.0
 10
2.886944881889764
 20
2.858078740157481
 30
0.0
 10
2.886944881889764
 20
2.858078740157481
 30
0.0
 10
2.923937007874016
 20
2.786551181102362
 30
0.0
 10
2.996118110236221
 20
2.626948818897638
 30
0.0
 10
3.059169291338583
 20
2.578909448818897
 30
0.0
 10
3.059169291338583
 20
2.578909448818897
 30
0.0
 10
3.121811023622047
 20
2.531181102362205
 30
0.0
 10
3.178885826771654
 20
2.556409448818898
 30
0.0
 10
3.067503937007874
 20
2.46501968503937
 30
0.0
 10
3.067503937007874
 20
2.46501968503937
 30
0.0
 10
2.795629921259843
 20
2.241944881889764
 30
0.0
 10
2.828692913385827
 20
2.341783464566929
 30
0.0
 10
2.746665354330708
 20
2.298358267716536
 30
0.0
 10
2.746665354330708
 20
2.298358267716536
 30
0.0
 10
2.699444881889764
 20
2.273358267716536
 30
0.0
 10
2.621669291338583
 20
2.199744094488189
 30
0.0
 10
2.581389763779528
 20
2.140716535433071
 30
0.0
 10
2.581389763779528
 20
2.140716535433071
 30
0.0
 10
2.496350393700788
 20
2.016090551181102
 30
0.0
 10
2.57857874015748
 20
1.970708661417323
 30
0.0
 10
2.600834645669291
 20
1.932381889763779
 30
0.0
 10
2.600834645669291
 20
1.932381889763779
 30
0.0
 10
2.613334645669291
 20
1.910854330708661
 30
0.0
 10
2.611948818897638
 20
1.887240157480315
 30
0.0
 10
2.60986220472441
 20
1.826822834645669
 30
0.0
 10
2.60986220472441
 20
1.826822834645669
 30
0.0
 10
2.607779527559055
 20
1.766409448818898
 30
0.0
 10
2.605003937007874
 20
1.669185039370079
 30
0.0
 10
2.600141732283464
 20
1.597657480314961
 30
0.0
 10
2.600141732283464
 20
1.597657480314961
 30
0.0
 10
2.588547244094488
 20
1.42711811023622
 30
0.0
 10
2.568295275590551
 20
1.44248031496063
 30
0.0
 10
2.457779527559055
 20
1.455988188976378
 30
0.0
 10
2.457779527559055
 20
1.455988188976378
 30
0.0
 10
2.395279527559055
 20
1.463629921259842
 30
0.0
 10
2.300834645669291
 20
1.47196062992126
 30
0.0
 10
2.251527559055118
 20
1.483070866141732
 30
0.0
 10
2.251527559055118
 20
1.483070866141732
 30
0.0
 10
2.202224409448819
 20
1.494185039370079
 30
0.0
 10
2.198055118110236
 20
1.508074803149606
 30
0.0
 10
2.195972440944882
 20
1.54001968503937
 30
0.0
 10
2.195972440944882
 20
1.54001968503937
 30
0.0
 10
2.185964566929134
 20
1.693547244094488
 30
0.0
 10
2.251011811023622
 20
1.669850393700787
 30
0.0
 10
2.273748031496063
 20
1.734464566929134
 30
0.0
 10
2.273748031496063
 20
1.734464566929134
 30
0.0
 10
2.286944881889764
 20
1.771964566929134
 30
0.0
 10
2.28
 20
1.834464566929134
 30
0.0
 10
2.264720472440945
 20
1.883074803149606
 30
0.0
 10
2.264720472440945
 20
1.883074803149606
 30
0.0
 10
2.249444881889764
 20
1.931688976377953
 30
0.0
 10
2.225834645669291
 20
1.966409448818898
 30
0.0
 10
2.221665354330709
 20
2.000437007874016
 30
0.0
 10
2.221665354330709
 20
2.000437007874016
 30
0.0
 10
2.2175
 20
2.034468503937008
 30
0.0
 10
2.232779527559055
 20
2.067799212598425
 30
0.0
 10
2.233472440944882
 20
2.105299212598425
 30
0.0
 10
2.233472440944882
 20
2.105299212598425
 30
0.0
 10
2.235374015748032
 20
2.208129921259843
 30
0.0
 10
2.15201968503937
 20
2.248909448818897
 30
0.0
 10
2.055692913385827
 20
2.259464566929134
 30
0.0
 10
2.055692913385827
 20
2.259464566929134
 30
0.0
 10
1.93203937007874
 20
2.273015748031496
 30
0.0
 10
1.876535433070866
 20
2.244204724409449
 30
0.0
 10
1.923055118110236
 20
2.337240157480315
 30
0.0
  0
SPLINE
  5
74
330
1F
100
AcDbEntity
  8
Layer 1
 62
   250
370
    18
100
AcDbSpline
210
0.0
220
0.0
230
1.0
 70
    11
 71
     3
 72
    76
 73
    72
 74
     0
 42
0.000000001
 43
0.0000000001
 40
0.0
 40
0.0
 40
0.0
 40
0.0
 40
0.0526315789473684
 40
0.0526315789473684
 40
0.0526315789473684
 40
0.0526315789473684
 40
0.1052631578947368
 40
0.1052631578947368
 40
0.1052631578947368
 40
0.1052631578947368
 40
0.1578947368421053
 40
0.1578947368421053
 40
0.1578947368421053
 40
0.1578947368421053
 40
0.2105263157894737
 40
0.2105263157894737
 40
0.2105263157894737
 40
0.2105263157894737
 40
0.2631578947368421
 40
0.2631578947368421
 40
0.2631578947368421
 40
0.2631578947368421
 40
0.3157894736842105
 40
0.3157894736842105
 40
0.3157894736842105
 40
0.3157894736842105
 40
0.3684210526315789
 40
0.3684210526315789
 40
0.3684210526315789
 40
0.3684210526315789
 40
0.4210526315789473
 40
0.4210526315789473
 40
0.4210526315789473
 40
0.4210526315789473
 40
0.4736842105263158
 40
0.4736842105263158
 40
0.4736842105263158
 40
0.4736842105263158
 40
0.5263157894736842
 40
0.5263157894736842
 40
0.5263157894736842
 40
0.5263157894736842
 40
0.5789473684210527
 40
0.5789473684210527
 40
0.5789473684210527
 40
0.5789473684210527
 40
0.631578947368421
 40
0.631578947368421
 40
0.631578947368421
 40
0.631578947368421
 40
0.6842105263157895
 40
0.6842105263157895
 40
0.6842105263157895
 40
0.6842105263157895
 40
0.7368421052631579
 40
0.7368421052631579
 40
0.7368421052631579
 40
0.7368421052631579
 40
0.7894736842105263
 40
0.7894736842105263
 40
0.7894736842105263
 40
0.7894736842105263
 40
0.8421052631578947
 40
0.8421052631578947
 40
0.8421052631578947
 40
0.8421052631578947
 40
0.8947368421052632
 40
0.8947368421052632
 40
0.8947368421052632
 40
0.8947368421052632
 40
1.0
 40
1.0
 40
1.0
 40
1.0
 10
-1.966523622047244
 20
1.930311023622047
 30
0.0
 10
-1.981106299212599
 20
1.90392125984252
 30
0.0
 10
-1.997775590551181
 20
1.856700787401575
 30
0.0
 10
-2.029023622047244
 20
1.826141732283465
 30
0.0
 10
-2.029023622047244
 20
1.826141732283465
 30
0.0
 10
-2.060275590551181
 20
1.795586614173228
 30
0.0
 10
-2.106106299212598
 20
1.781700787401575
 30
0.0
 10
-2.111661417322835
 20
1.760173228346457
 30
0.0
 10
-2.111661417322835
 20
1.760173228346457
 30
0.0
 10
-2.117220472440945
 20
1.738645669291339
 30
0.0
 10
-2.082496062992126
 20
1.709476377952756
 30
0.0
 10
-2.073468503937008
 20
1.683086614173228
 30
0.0
 10
-2.073468503937008
 20
1.683086614173228
 30
0.0
 10
-2.051165354330708
 20
1.617893700787401
 30
0.0
 10
-2.202669291338583
 20
1.563271653543307
 30
0.0
 10
-2.23944094488189
 20
1.496283464566929
 30
0.0
 10
-2.23944094488189
 20
1.496283464566929
 30
0.0
 10
-2.258885826771654
 20
1.460866141732283
 30
0.0
 10
-2.236665354330709
 20
1.42892125984252
 30
0.0
 10
-2.226248031496063
 20
1.39142125984252
 30
0.0
 10
-2.226248031496063
 20
1.39142125984252
 30
0.0
 10
-2.215830708661418
 20
1.35392125984252
 30
0.0
 10
-2.217220472440945
 20
1.310866141732284
 30
0.0
 10
-2.223468503937008
 20
1.24142125984252
 30
0.0
 10
-2.223468503937008
 20
1.24142125984252
 30
0.0
 10
-2.230251968503937
 20
1.166047244094488
 30
0.0
 10
-2.265590551181103
 20
0.9050708661417323
 30
0.0
 10
-2.216523622047244
 20
0.856003937007874
 30
0.0
 10
-2.216523622047244
 20
0.856003937007874
 30
0.0
 10
-2.197775590551181
 20
0.8372559055118111
 30
0.0
 10
-2.168606299212598
 20
0.8525314960629922
 30
0.0
 10
-2.110271653543307
 20
0.9018385826771653
 30
0.0
 10
-2.110271653543307
 20
0.9018385826771653
 30
0.0
 10
-2.05194094488189
 20
0.9511456692913386
 30
0.0
 10
-1.96444094488189
 20
1.034476377952756
 30
0.0
 10
-1.885968503937008
 20
1.090724409448819
 30
0.0
 10
-1.885968503937008
 20
1.090724409448819
 30
0.0
 10
-1.807496062992126
 20
1.146976377952756
 30
0.0
 10
-1.738051181102362
 20
1.176145669291339
 30
0.0
 10
-1.698468503937008
 20
1.194893700787402
 30
0.0
 10
-1.698468503937008
 20
1.194893700787402
 30
0.0
 10
-1.658885826771654
 20
1.213645669291339
 30
0.0
 10
-1.649161417322835
 20
1.221976377952756
 30
0.0
 10
-1.67138188976378
 20
1.244893700787401
 30
0.0
 10
-1.67138188976378
 20
1.244893700787401
 30
0.0
 10
-1.72896062992126
 20
1.304271653543307
 30
0.0
 10
-1.821649606299213
 20
1.341094488188976
 30
0.0
 10
-1.829716535433071
 20
1.458086614173228
 30
0.0
 10
-1.829716535433071
 20
1.458086614173228
 30
0.0
 10
-1.832496062992126
 20
1.498366141732284
 30
0.0
 10
-1.825555118110236
 20
1.54142125984252
 30
0.0
 10
-1.842220472440945
 20
1.57405905511811
 30
0.0
 10
-1.842220472440945
 20
1.57405905511811
 30
0.0
 10
-1.858885826771653
 20
1.606700787401575
 30
0.0
 10
-1.899165354330709
 20
1.62892125984252
 30
0.0
 10
-1.913748031496063
 20
1.673366141732283
 30
0.0
 10
-1.913748031496063
 20
1.673366141732283
 30
0.0
 10
-1.928330708661417
 20
1.717811023622047
 30
0.0
 10
-1.917220472440945
 20
1.78448031496063
 30
0.0
 10
-1.901248031496063
 20
1.826838582677165
 30
0.0
 10
-1.901248031496063
 20
1.826838582677165
 30
0.0
 10
-1.879992125984252
 20
1.883216535433071
 30
0.0
 10
-1.827885826771654
 20
1.916437007874016
 30
0.0
 10
-1.871385826771653
 20
1.94905905511811
 30
0.0
 10
-1.871385826771653
 20
1.94905905511811
 30
0.0
 10
-1.885275590551181
 20
1.959476377952756
 30
0.0
 10
-1.906106299212598
 20
1.963645669291339
 30
0.0
 10
-1.922771653543307
 20
1.962948818897638
 30
0.0
 10
-1.922771653543307
 20
1.962948818897638
 30
0.0
 10
-1.93944094488189
 20
1.962255905511811
 30
0.0
 10
-1.95194094488189
 20
1.956700787401575
 30
0.0
 10
-1.966523622047244
 20
1.930311023622047
 30
0.0
  0
SPLINE
  5
75
330
1F
100
AcDbEntity
  8
Layer 1
 62
   250
370
    18
100
AcDbSpline
210
0.0
220
0.0
230
1.0
 70
    11
 71
     3
 72
   108
 73
   104
 74
     0
 42
0.000000001
 43
0.0000000001
 40
0.0
 40
0.0
 40
0.0
 40
0.0
 40
0.037037037037037
 40
0.037037037037037
 40
0.037037037037037
 40
0.037037037037037
 40
0.0740740740740741
 40
0.0740740740740741
 40
0.0740740740740741
 40
0.0740740740740741
 40
0.1111111111111111
 40
0.1111111111111111
 40
0.1111111111111111
 40
0.1111111111111111
 40
0.1481481481481481
 40
0.1481481481481481
 40
0.1481481481481481
 40
0.1481481481481481
 40
0.1851851851851852
 40
0.1851851851851852
 40
0.1851851851851852
 40
0.1851851851851852
 40
0.2222222222222222
 40
0.2222222222222222
 40
0.2222222222222222
 40
0.2222222222222222
 40
0.2592592592592592
 40
0.2592592592592592
 40
0.2592592592592592
 40
0.2592592592592592
 40
0.2962962962962963
 40
0.2962962962962963
 40
0.2962962962962963
 40
0.2962962962962963
 40
0.3333333333333333
 40
0.3333333333333333
 40
0.3333333333333333
 40
0.3333333333333333
 40
0.3703703703703703
 40
0.3703703703703703
 40
0.3703703703703703
 40
0.3703703703703703
 40
0.4074074074074074
 40
0.4074074074074074
 40
0.4074074074074074
 40
0.4074074074074074
 40
0.4444444444444444
 40
0.4444444444444444
 40
0.4444444444444444
 40
0.4444444444444444
 40
0.4814814814814815
 40
0.4814814814814815
 40
0.4814814814814815
 40
0.4814814814814815
 40
0.5185185185185185
 40
0.5185185185185185
 40
0.5185185185185185
 40
0.5185185185185185
 40
0.5555555555555556
 40
0.5555555555555556
 40
0.5555555555555556
 40
0.5555555555555556
 40
0.5925925925925926
 40
0.5925925925925926
 40
0.5925925925925926
 40
0.5925925925925926
 40
0.6296296296296297
 40
0.6296296296296297
 40
0.6296296296296297
 40
0.6296296296296297
 40
0.6666666666666666
 40
0.6666666666666666
 40
0.6666666666666666
 40
0.6666666666666666
 40
0.7037037037037037
 40
0.7037037037037037
 40
0.7037037037037037
 40
0.7037037037037037
 40
0.7407407407407407
 40
0.7407407407407407
 40
0.7407407407407407
 40
0.7407407407407407
 40
0.7777777777777778
 40
0.7777777777777778
 40
0.7777777777777778
 40
0.7777777777777778
 40
0.8148148148148148
 40
0.8148148148148148
 40
0.8148148148148148
 40
0.8148148148148148
 40
0.8518518518518519
 40
0.8518518518518519
 40
0.8518518518518519
 40
0.8518518518518519
 40
0.8888888888888888
 40
0.8888888888888888
 40
0.8888888888888888
 40
0.8888888888888888
 40
0.9259259259259259
 40
0.9259259259259259
 40
0.9259259259259259
 40
0.9259259259259259
 40
1.0
 40
1.0
 40
1.0
 40
1.0
 10
2.948716535433071
 20
7.185885826771654
 30
0.0
 10
2.975799212598425
 20
7.146996062992126
 30
0.0
 10
3.011913385826772
 20
7.080330708661418
 30
0.0
 10
3.035523622047244
 20
7.027551181102362
 30
0.0
 10
3.035523622047244
 20
7.027551181102362
 30
0.0
 10
3.059133858267717
 20
6.974771653543307
 30
0.0
 10
3.070248031496063
 20
6.935885826771654
 30
0.0
 10
3.073023622047244
 20
6.881023622047244
 30
0.0
 10
3.073023622047244
 20
6.881023622047244
 30
0.0
 10
3.075803149606299
 20
6.826161417322835
 30
0.0
 10
3.070244094488189
 20
6.755330708661417
 30
0.0
 10
3.07301968503937
 20
6.719913385826771
 30
0.0
 10
3.07301968503937
 20
6.719913385826771
 30
0.0
 10
3.07761811023622
 20
6.661255905511811
 30
0.0
 10
3.114688976377953
 20
6.694275590551181
 30
0.0
 10
3.169551181102362
 20
6.66088188976378
 30
0.0
 10
3.169551181102362
 20
6.66088188976378
 30
0.0
 10
3.185523622047244
 20
6.651161417322835
 30
0.0
 10
3.189692913385827
 20
6.638661417322835
 30
0.0
 10
3.195248031496063
 20
6.615051181102362
 30
0.0
 10
3.195248031496063
 20
6.615051181102362
 30
0.0
 10
3.204106299212599
 20
6.57740157480315
 30
0.0
 10
3.227003937007874
 20
6.461917322834646
 30
0.0
 10
3.251492125984252
 20
6.433106299212598
 30
0.0
 10
3.251492125984252
 20
6.433106299212598
 30
0.0
 10
3.263299212598425
 20
6.419216535433071
 30
0.0
 10
3.274413385826771
 20
6.42894094488189
 30
0.0
 10
3.326496062992126
 20
6.475468503937008
 30
0.0
 10
3.326496062992126
 20
6.475468503937008
 30
0.0
 10
3.481763779527559
 20
6.614173228346456
 30
0.0
 10
3.660456692913386
 20
6.765066929133858
 30
0.0
 10
3.869555118110236
 20
6.855326771653544
 30
0.0
 10
3.869555118110236
 20
6.855326771653544
 30
0.0
 10
4.049566929133858
 20
6.933031496062992
 30
0.0
 10
4.212212598425197
 20
6.938299212598425
 30
0.0
 10
4.290385826771653
 20
6.974074803149606
 30
0.0
 10
4.290385826771653
 20
6.974074803149606
 30
0.0
 10
4.360795275590551
 20
7.006295275590551
 30
0.0
 10
4.440984251968504
 20
7.103444881889764
 30
0.0
 10
4.621637795275591
 20
7.163661417322834
 30
0.0
 10
4.621637795275591
 20
7.163661417322834
 30
0.0
 10
4.798527559055118
 20
7.222622047244094
 30
0.0
 10
4.923185039370079
 20
7.190444881889764
 30
0.0
 10
4.948027559055118
 20
7.197688976377953
 30
0.0
 10
4.948027559055118
 20
7.197688976377953
 30
0.0
 10
4.9646968503937
 20
7.202551181102362
 30
0.0
 10
4.9646968503937
 20
7.220610236220472
 30
0.0
 10
4.963307086614173
 20
7.259496062992126
 30
0.0
 10
4.963307086614173
 20
7.259496062992126
 30
0.0
 10
4.958984251968504
 20
7.380444881889764
 30
0.0
 10
4.937834645669291
 20
7.440149606299213
 30
0.0
 10
4.843169291338583
 20
7.517826771653543
 30
0.0
 10
4.843169291338583
 20
7.517826771653543
 30
0.0
 10
4.816086614173228
 20
7.540051181102362
 30
0.0
 10
4.804972440944882
 20
7.545610236220472
 30
0.0
 10
4.720248031496063
 20
7.540055118110236
 30
0.0
 10
4.720248031496063
 20
7.540055118110236
 30
0.0
 10
4.635527559055118
 20
7.5345
 30
0.0
 10
4.477196850393701
 20
7.517830708661418
 30
0.0
 10
4.393165354330709
 20
7.499775590551181
 30
0.0
 10
4.393165354330709
 20
7.499775590551181
 30
0.0
 10
4.233629921259842
 20
7.465496062992126
 30
0.0
 10
4.338984251968504
 20
7.42507874015748
 30
0.0
 10
4.303582677165354
 20
7.301161417322835
 30
0.0
 10
4.303582677165354
 20
7.301161417322835
 30
0.0
 10
4.27290157480315
 20
7.193767716535433
 30
0.0
 10
4.158586614173228
 20
7.059866141732283
 30
0.0
 10
4.041082677165354
 20
7.051161417322835
 30
0.0
 10
4.041082677165354
 20
7.051161417322835
 30
0.0
 10
4.003582677165355
 20
7.048385826771653
 30
0.0
 10
3.984137795275591
 20
7.062271653543307
 30
0.0
 10
3.987610236220473
 20
7.08171653543307
 30
0.0
 10
3.987610236220473
 20
7.08171653543307
 30
0.0
 10
3.991082677165354
 20
7.101161417322834
 30
0.0
 10
4.017468503937008
 20
7.126161417322835
 30
0.0
 10
4.04107874015748
 20
7.162271653543307
 30
0.0
 10
4.04107874015748
 20
7.162271653543307
 30
0.0
 10
4.064692913385827
 20
7.198385826771654
 30
0.0
 10
4.085523622047244
 20
7.245606299212598
 30
0.0
 10
4.075803149606299
 20
7.265744094488189
 30
0.0
 10
4.075803149606299
 20
7.265744094488189
 30
0.0
 10
4.066082677165355
 20
7.285885826771653
 30
0.0
 10
4.0258031496063
 20
7.27894094488189
 30
0.0
 10
3.995248031496063
 20
7.307413385826772
 30
0.0
 10
3.995248031496063
 20
7.307413385826772
 30
0.0
 10
3.939102362204725
 20
7.359732283464567
 30
0.0
 10
3.935283464566929
 20
7.494653543307087
 30
0.0
 10
3.711220472440945
 20
7.535192913385827
 30
0.0
 10
3.711220472440945
 20
7.535192913385827
 30
0.0
 10
3.638303149606299
 20
7.548385826771653
 30
0.0
 10
3.561913385826772
 20
7.545610236220472
 30
0.0
 10
3.461216535433071
 20
7.531023622047244
 30
0.0
 10
3.461216535433071
 20
7.531023622047244
 30
0.0
 10
3.360523622047244
 20
7.516440944881889
 30
0.0
 10
3.235523622047244
 20
7.490055118110236
 30
0.0
 10
3.148716535433071
 20
7.451165354330708
 30
0.0
 10
3.148716535433071
 20
7.451165354330708
 30
0.0
 10
3.061913385826772
 20
7.412275590551181
 30
0.0
 10
3.013299212598425
 20
7.360885826771653
 30
0.0
 10
2.975799212598425
 20
7.324771653543307
 30
0.0
 10
2.975799212598425
 20
7.324771653543307
 30
0.0
 10
2.882035433070866
 20
7.23448031496063
 30
0.0
 10
2.895484251968504
 20
7.262326771653544
 30
0.0
 10
2.948716535433071
 20
7.185885826771654
 30
0.0
  0
SPLINE
  5
76
330
1F
100
AcDbEntity
  8
Layer 1
 62
   250
370
    18
100
AcDbSpline
210
0.0
220
0.0
230
1.0
 70
    11
 71
     3
 72
    36
 73
    32
 74
     0
 42
0.000000001
 43
0.0000000001
 40
0.0
 40
0.0
 40
0.0
 40
0.0
 40
0.1111111111111111
 40
0.1111111111111111
 40
0.1111111111111111
 40
0.1111111111111111
 40
0.2222222222222222
 40
0.2222222222222222
 40
0.2222222222222222
 40
0.2222222222222222
 40
0.3333333333333333
 40
0.3333333333333333
 40
0.3333333333333333
 40
0.3333333333333333
 40
0.4444444444444444
 40
0.4444444444444444
 40
0.4444444444444444
 40
0.4444444444444444
 40
0.5555555555555556
 40
0.5555555555555556
 40
0.5555555555555556
 40
0.5555555555555556
 40
0.6666666666666666
 40
0.6666666666666666
 40
0.6666666666666666
 40
0.6666666666666666
 40
0.7777777777777778
 40
0.7777777777777778
 40
0.7777777777777778
 40
0.7777777777777778
 40
1.0
 40
1.0
 40
1.0
 40
1.0
 10
-2.588779527559055
 20
7.040043307086614
 30
0.0
 10
-2.542251968503937
 20
7.035877952755905
 30
0.0
 10
-2.486696850393701
 20
7.033102362204724
 30
0.0
 10
-2.404055118110236
 20
7.035185039370079
 30
0.0
 10
-2.404055118110236
 20
7.035185039370079
 30
0.0
 10
-2.321417322834646
 20
7.037267716535433
 30
0.0
 10
-2.211696850393701
 20
7.044212598425196
 30
0.0
 10
-2.154055118110236
 20
7.031015748031496
 30
0.0
 10
-2.154055118110236
 20
7.031015748031496
 30
0.0
 10
-2.096417322834646
 20
7.01782283464567
 30
0.0
 10
-2.090862204724409
 20
6.984492125984252
 30
0.0
 10
-2.089472440944882
 20
6.905322834645669
 30
0.0
 10
-2.089472440944882
 20
6.905322834645669
 30
0.0
 10
-2.088086614173228
 20
6.826157480314961
 30
0.0
 10
-2.090862204724409
 20
6.701157480314961
 30
0.0
 10
-2.0985
 20
6.639350393700788
 30
0.0
 10
-2.0985
 20
6.639350393700788
 30
0.0
 10
-2.106141732283465
 20
6.577547244094488
 30
0.0
 10
-2.118641732283465
 20
6.578933070866142
 30
0.0
 10
-2.189472440944882
 20
6.616433070866142
 30
0.0
 10
-2.189472440944882
 20
6.616433070866142
 30
0.0
 10
-2.326086614173228
 20
6.688759842519685
 30
0.0
 10
-2.568515748031496
 20
6.829952755905512
 30
0.0
 10
-2.675586614173228
 20
6.939350393700788
 30
0.0
 10
-2.675586614173228
 20
6.939350393700788
 30
0.0
 10
-2.707531496062992
 20
6.971992125984252
 30
0.0
 10
-2.708917322834646
 20
6.984492125984252
 30
0.0
 10
-2.709610236220473
 20
7.000464566929134
 30
0.0
 10
-2.709610236220473
 20
7.000464566929134
 30
0.0
 10
-2.712188976377953
 20
7.059751968503937
 30
0.0
 10
-2.674700787401575
 20
7.047744094488189
 30
0.0
 10
-2.588779527559055
 20
7.040043307086614
 30
0.0
  0
SPLINE
  5
77
330
1F
100
AcDbEntity
  8
Layer 1
 62
   250
370
    18
100
AcDbSpline
210
0.0
220
0.0
230
1.0
 70
    11
 71
     3
 72
    28
 73
    24
 74
     0
 42
0.000000001
 43
0.0000000001
 40
0.0
 40
0.0
 40
0.0
 40
0.0
 40
0.1428571428571428
 40
0.1428571428571428
 40
0.1428571428571428
 40
0.1428571428571428
 40
0.2857142857142857
 40
0.2857142857142857
 40
0.2857142857142857
 40
0.2857142857142857
 40
0.4285714285714285
 40
0.4285714285714285
 40
0.4285714285714285
 40
0.4285714285714285
 40
0.5714285714285714
 40
0.5714285714285714
 40
0.5714285714285714
 40
0.5714285714285714
 40
0.7142857142857143
 40
0.7142857142857143
 40
0.7142857142857143
 40
0.7142857142857143
 40
1.0
 40
1.0
 40
1.0
 40
1.0
 10
5.863657480314961
 20
0.3014094488188976
 30
0.0
 10
5.863657480314961
 20
0.3541968503937008
 30
0.0
 10
5.84386220472441
 20
0.3805826771653543
 30
0.0
 10
5.804275590551181
 20
0.3805826771653543
 30
0.0
 10
5.804275590551181
 20
0.3805826771653543
 30
0.0
 10
5.804275590551181
 20
0.3805826771653543
 30
0.0
 10
5.730047244094489
 20
0.3805826771653543
 30
0.0
 10
5.730047244094489
 20
0.3805826771653543
 30
0.0
 10
5.730047244094489
 20
0.3805826771653543
 30
0.0
 10
5.730047244094489
 20
0.3805826771653543
 30
0.0
 10
5.730047244094489
 20
-0.6981496062992126
 30
0.0
 10
5.730047244094489
 20
-0.6981496062992126
 30
0.0
 10
5.730047244094489
 20
-0.6981496062992126
 30
0.0
 10
5.730047244094489
 20
-0.6981496062992126
 30
0.0
 10
5.799330708661417
 20
-0.6981496062992126
 30
0.0
 10
5.799330708661417
 20
-0.6981496062992126
 30
0.0
 10
5.799330708661417
 20
-0.6981496062992126
 30
0.0
 10
5.842212598425196
 20
-0.6981496062992126
 30
0.0
 10
5.863657480314961
 20
-0.6585669291338583
 30
0.0
 10
5.863657480314961
 20
-0.5793897637795276
 30
0.0
 10
5.863657480314961
 20
-0.5793897637795276
 30
0.0
 10
5.863657480314961
 20
-0.5793897637795276
 30
0.0
 10
5.863657480314961
 20
0.3014094488188976
 30
0.0
 10
5.863657480314961
 20
0.3014094488188976
 30
0.0
  0
SPLINE
  5
78
330
1F
100
AcDbEntity
  8
Layer 1
 62
   250
370
    18
100
AcDbSpline
210
0.0
220
0.0
230
1.0
 70
    11
 71
     3
 72
    32
 73
    28
 74
     0
 42
0.000000001
 43
0.0000000001
 40
0.0
 40
0.0
 40
0.0
 40
0.0
 40
0.125
 40
0.125
 40
0.125
 40
0.125
 40
0.25
 40
0.25
 40
0.25
 40
0.25
 40
0.375
 40
0.375
 40
0.375
 40
0.375
 40
0.5
 40
0.5
 40
0.5
 40
0.5
 40
0.625
 40
0.625
 40
0.625
 40
0.625
 40
0.75
 40
0.75
 40
0.75
 40
0.75
 40
1.0
 40
1.0
 40
1.0
 40
1.0
 10
2.068291338582677
 20
0.2964606299212598
 30
0.0
 10
2.068291338582677
 20
0.3657362204724409
 30
0.0
 10
2.046850393700788
 20
0.4003779527559055
 30
0.0
 10
2.003964566929134
 20
0.4003779527559055
 30
0.0
 10
2.003964566929134
 20
0.4003779527559055
 30
0.0
 10
1.977570866141732
 20
0.4003779527559055
 30
0.0
 10
1.959429133858268
 20
0.3904842519685039
 30
0.0
 10
1.949531496062992
 20
0.3706850393700787
 30
0.0
 10
1.949531496062992
 20
0.3706850393700787
 30
0.0
 10
1.939633858267717
 20
0.3508937007874016
 30
0.0
 10
1.934685039370079
 20
0.3261496062992126
 30
0.0
 10
1.934685039370079
 20
0.2964606299212598
 30
0.0
 10
1.934685039370079
 20
0.2964606299212598
 30
0.0
 10
1.934685039370079
 20
0.2964606299212598
 30
0.0
 10
1.934685039370079
 20
-1.959972440944882
 30
0.0
 10
1.934685039370079
 20
-1.959972440944882
 30
0.0
 10
1.934685039370079
 20
-1.959972440944882
 30
0.0
 10
1.934685039370079
 20
-2.025948818897638
 30
0.0
 10
1.959429133858268
 20
-2.058937007874016
 30
0.0
 10
2.008913385826772
 20
-2.058937007874016
 30
0.0
 10
2.008913385826772
 20
-2.058937007874016
 30
0.0
 10
2.048496062992126
 20
-2.058937007874016
 30
0.0
 10
2.068291338582677
 20
-2.025948818897638
 30
0.0
 10
2.068291338582677
 20
-1.959972440944882
 30
0.0
 10
2.068291338582677
 20
-1.959972440944882
 30
0.0
 10
2.068291338582677
 20
-1.959972440944882
 30
0.0
 10
2.068291338582677
 20
0.2964606299212598
 30
0.0
 10
2.068291338582677
 20
0.2964606299212598
 30
0.0
  0
SPLINE
  5
79
330
1F
100
AcDbEntity
  8
Layer 1
 62
   250
370
    18
100
AcDbSpline
210
0.0
220
0.0
230
1.0
 70
    11
 71
     3
 72
    28
 73
    24
 74
     0
 42
0.000000001
 43
0.0000000001
 40
0.0
 40
0.0
 40
0.0
 40
0.0
 40
0.1428571428571428
 40
0.1428571428571428
 40
0.1428571428571428
 40
0.1428571428571428
 40
0.2857142857142857
 40
0.2857142857142857
 40
0.2857142857142857
 40
0.2857142857142857
 40
0.4285714285714285
 40
0.4285714285714285
 40
0.4285714285714285
 40
0.4285714285714285
 40
0.5714285714285714
 40
0.5714285714285714
 40
0.5714285714285714
 40
0.5714285714285714
 40
0.7142857142857143
 40
0.7142857142857143
 40
0.7142857142857143
 40
0.7142857142857143
 40
1.0
 40
1.0
 40
1.0
 40
1.0
 10
1.043988188976378
 20
0.3014094488188976
 30
0.0
 10
1.043988188976378
 20
0.3541968503937008
 30
0.0
 10
1.024196850393701
 20
0.3805826771653543
 30
0.0
 10
0.9846062992125985
 20
0.3805826771653543
 30
0.0
 10
0.9846062992125985
 20
0.3805826771653543
 30
0.0
 10
0.9846062992125985
 20
0.3805826771653543
 30
0.0
 10
0.9103818897637795
 20
0.3805826771653543
 30
0.0
 10
0.9103818897637795
 20
0.3805826771653543
 30
0.0
 10
0.9103818897637795
 20
0.3805826771653543
 30
0.0
 10
0.9103818897637795
 20
0.3805826771653543
 30
0.0
 10
0.9103818897637795
 20
-0.6981496062992126
 30
0.0
 10
0.9103818897637795
 20
-0.6981496062992126
 30
0.0
 10
0.9103818897637795
 20
-0.6981496062992126
 30
0.0
 10
0.9103818897637795
 20
-0.6981496062992126
 30
0.0
 10
0.9796614173228346
 20
-0.6981496062992126
 30
0.0
 10
0.9796614173228346
 20
-0.6981496062992126
 30
0.0
 10
0.9796614173228346
 20
-0.6981496062992126
 30
0.0
 10
1.022543307086614
 20
-0.6981496062992126
 30
0.0
 10
1.043988188976378
 20
-0.6585669291338583
 30
0.0
 10
1.043988188976378
 20
-0.5793897637795276
 30
0.0
 10
1.043988188976378
 20
-0.5793897637795276
 30
0.0
 10
1.043988188976378
 20
-0.5793897637795276
 30
0.0
 10
1.043988188976378
 20
0.3014094488188976
 30
0.0
 10
1.043988188976378
 20
0.3014094488188976
 30
0.0
  0
SPLINE
  5
7A
330
1F
100
AcDbEntity
  8
Layer 1
 62
   250
370
    18
100
AcDbSpline
210
0.0
220
0.0
230
1.0
 70
    11
 71
     3
 72
    32
 73
    28
 74
     0
 42
0.000000001
 43
0.0000000001
 40
0.0
 40
0.0
 40
0.0
 40
0.0
 40
0.125
 40
0.125
 40
0.125
 40
0.125
 40
0.25
 40
0.25
 40
0.25
 40
0.25
 40
0.375
 40
0.375
 40
0.375
 40
0.375
 40
0.5
 40
0.5
 40
0.5
 40
0.5
 40
0.625
 40
0.625
 40
0.625
 40
0.625
 40
0.75
 40
0.75
 40
0.75
 40
0.75
 40
1.0
 40
1.0
 40
1.0
 40
1.0
 10
0.0097913385826772
 20
-0.9356692913385827
 30
0.0
 10
0.0097913385826772
 20
-0.9125787401574803
 30
0.0
 10
0.006488188976378
 20
-0.8927874015748032
 30
0.0
 10
-0.0001062992125984
 20
-0.8762874015748031
 30
0.0
 10
-0.0001062992125984
 20
-0.8762874015748031
 30
0.0
 10
-0.0067086614173228
 20
-0.8597992125984252
 30
0.0
 10
-0.018248031496063
 20
-0.8515511811023622
 30
0.0
 10
-0.034748031496063
 20
-0.8515511811023622
 30
0.0
 10
-0.034748031496063
 20
-0.8515511811023622
 30
0.0
 10
-0.034748031496063
 20
-0.8515511811023622
 30
0.0
 10
-0.1238149606299213
 20
-0.8515511811023622
 30
0.0
 10
-0.1238149606299213
 20
-0.8515511811023622
 30
0.0
 10
-0.1238149606299213
 20
-0.8515511811023622
 30
0.0
 10
-0.1238149606299213
 20
-0.8515511811023622
 30
0.0
 10
-0.1238149606299213
 20
-2.044094488188976
 30
0.0
 10
-0.1238149606299213
 20
-2.044094488188976
 30
0.0
 10
-0.1238149606299213
 20
-2.044094488188976
 30
0.0
 10
-0.1238149606299213
 20
-2.044094488188976
 30
0.0
 10
-0.034748031496063
 20
-2.044094488188976
 30
0.0
 10
-0.034748031496063
 20
-2.044094488188976
 30
0.0
 10
-0.034748031496063
 20
-2.044094488188976
 30
0.0
 10
-0.0050551181102362
 20
-2.044094488188976
 30
0.0
 10
0.0097913385826772
 20
-2.012751968503937
 30
0.0
 10
0.0097913385826772
 20
-1.95007874015748
 30
0.0
 10
0.0097913385826772
 20
-1.95007874015748
 30
0.0
 10
0.0097913385826772
 20
-1.95007874015748
 30
0.0
 10
0.0097913385826772
 20
-0.9356692913385827
 30
0.0
 10
0.0097913385826772
 20
-0.9356692913385827
 30
0.0
  0
SPLINE
  5
7B
330
1F
100
AcDbEntity
  8
Layer 1
 62
   250
370
    18
100
AcDbSpline
210
0.0
220
0.0
230
1.0
 70
    11
 71
     3
 72
    28
 73
    24
 74
     0
 42
0.000000001
 43
0.0000000001
 40
0.0
 40
0.0
 40
0.0
 40
0.0
 40
0.1428571428571428
 40
0.1428571428571428
 40
0.1428571428571428
 40
0.1428571428571428
 40
0.2857142857142857
 40
0.2857142857142857
 40
0.2857142857142857
 40
0.2857142857142857
 40
0.4285714285714285
 40
0.4285714285714285
 40
0.4285714285714285
 40
0.4285714285714285
 40
0.5714285714285714
 40
0.5714285714285714
 40
0.5714285714285714
 40
0.5714285714285714
 40
0.7142857142857143
 40
0.7142857142857143
 40
0.7142857142857143
 40
0.7142857142857143
 40
1.0
 40
1.0
 40
1.0
 40
1.0
 10
0.0097913385826772
 20
0.2717244094488189
 30
0.0
 10
0.0097913385826772
 20
0.3442952755905512
 30
0.0
 10
-0.01
 20
0.3805826771653543
 30
0.0
 10
-0.0495905511811024
 20
0.3805826771653543
 30
0.0
 10
-0.0495905511811024
 20
0.3805826771653543
 30
0.0
 10
-0.0495905511811024
 20
0.3805826771653543
 30
0.0
 10
-0.1238149606299213
 20
0.3805826771653543
 30
0.0
 10
-0.1238149606299213
 20
0.3805826771653543
 30
0.0
 10
-0.1238149606299213
 20
0.3805826771653543
 30
0.0
 10
-0.1238149606299213
 20
0.3805826771653543
 30
0.0
 10
-0.1238149606299213
 20
-0.5249606299212598
 30
0.0
 10
-0.1238149606299213
 20
-0.5249606299212598
 30
0.0
 10
-0.1238149606299213
 20
-0.5249606299212598
 30
0.0
 10
-0.1238149606299213
 20
-0.5249606299212598
 30
0.0
 10
-0.034748031496063
 20
-0.5249606299212598
 30
0.0
 10
-0.034748031496063
 20
-0.5249606299212598
 30
0.0
 10
-0.034748031496063
 20
-0.5249606299212598
 30
0.0
 10
-0.0050551181102362
 20
-0.5249606299212598
 30
0.0
 10
0.0097913385826772
 20
-0.4936220472440945
 30
0.0
 10
0.0097913385826772
 20
-0.4309409448818898
 30
0.0
 10
0.0097913385826772
 20
-0.4309409448818898
 30
0.0
 10
0.0097913385826772
 20
-0.4309409448818898
 30
0.0
 10
0.0097913385826772
 20
0.2717244094488189
 30
0.0
 10
0.0097913385826772
 20
0.2717244094488189
 30
0.0
  0
SPLINE
  5
7C
330
1F
100
AcDbEntity
  8
Layer 1
 62
   250
370
    18
100
AcDbSpline
210
0.0
220
0.0
230
1.0
 70
    11
 71
     3
 72
    36
 73
    32
 74
     0
 42
0.000000001
 43
0.0000000001
 40
0.0
 40
0.0
 40
0.0
 40
0.0
 40
0.1111111111111111
 40
0.1111111111111111
 40
0.1111111111111111
 40
0.1111111111111111
 40
0.2222222222222222
 40
0.2222222222222222
 40
0.2222222222222222
 40
0.2222222222222222
 40
0.3333333333333333
 40
0.3333333333333333
 40
0.3333333333333333
 40
0.3333333333333333
 40
0.4444444444444444
 40
0.4444444444444444
 40
0.4444444444444444
 40
0.4444444444444444
 40
0.5555555555555556
 40
0.5555555555555556
 40
0.5555555555555556
 40
0.5555555555555556
 40
0.6666666666666666
 40
0.6666666666666666
 40
0.6666666666666666
 40
0.6666666666666666
 40
0.7777777777777778
 40
0.7777777777777778
 40
0.7777777777777778
 40
0.7777777777777778
 40
1.0
 40
1.0
 40
1.0
 40
1.0
 10
-1.69105905511811
 20
-1.985350393700787
 30
0.0
 10
-1.69105905511811
 20
-1.985350393700787
 30
0.0
 10
-1.69105905511811
 20
0.306992125984252
 30
0.0
 10
-1.69105905511811
 20
0.306992125984252
 30
0.0
 10
-1.69105905511811
 20
0.306992125984252
 30
0.0
 10
-1.69105905511811
 20
0.306992125984252
 30
0.0
 10
-2.093818897637795
 20
0.306992125984252
 30
0.0
 10
-2.093818897637795
 20
0.306992125984252
 30
0.0
 10
-2.093818897637795
 20
0.306992125984252
 30
0.0
 10
-2.044779527559055
 20
0.2905551181102362
 30
0.0
 10
-2.001661417322834
 20
0.2680236220472441
 30
0.0
 10
-1.964472440944882
 20
0.2394330708661417
 30
0.0
 10
-1.964472440944882
 20
0.2394330708661417
 30
0.0
 10
-1.876984251968504
 20
0.1721496062992126
 30
0.0
 10
-1.833232283464567
 20
0.0824448818897638
 30
0.0
 10
-1.833232283464567
 20
-0.0296889763779528
 30
0.0
 10
-1.833232283464567
 20
-0.0296889763779528
 30
0.0
 10
-1.833232283464567
 20
-0.0296889763779528
 30
0.0
 10
-1.833232283464567
 20
-1.63698031496063
 30
0.0
 10
-1.833232283464567
 20
-1.63698031496063
 30
0.0
 10
-1.833232283464567
 20
-1.63698031496063
 30
0.0
 10
-1.833232283464567
 20
-1.751602362204724
 30
0.0
 10
-1.877885826771654
 20
-1.844429133858268
 30
0.0
 10
-1.967204724409449
 20
-1.915452755905512
 30
0.0
 10
-1.967204724409449
 20
-1.915452755905512
 30
0.0
 10
-2.004149606299213
 20
-1.944826771653543
 30
0.0
 10
-2.046232283464567
 20
-1.968129921259842
 30
0.0
 10
-2.093464566929134
 20
-1.985350393700787
 30
0.0
 10
-2.093464566929134
 20
-1.985350393700787
 30
0.0
 10
-2.093464566929134
 20
-1.985350393700787
 30
0.0
 10
-1.69105905511811
 20
-1.985350393700787
 30
0.0
 10
-1.69105905511811
 20
-1.985350393700787
 30
0.0
  0
SPLINE
  5
7D
330
1F
100
AcDbEntity
  8
Layer 1
 62
   250
370
    18
100
AcDbSpline
210
0.0
220
0.0
230
1.0
 70
    11
 71
     3
 72
    32
 73
    28
 74
     0
 42
0.000000001
 43
0.0000000001
 40
0.0
 40
0.0
 40
0.0
 40
0.0
 40
0.125
 40
0.125
 40
0.125
 40
0.125
 40
0.25
 40
0.25
 40
0.25
 40
0.25
 40
0.375
 40
0.375
 40
0.375
 40
0.375
 40
0.5
 40
0.5
 40
0.5
 40
0.5
 40
0.625
 40
0.625
 40
0.625
 40
0.625
 40
0.75
 40
0.75
 40
0.75
 40
0.75
 40
1.0
 40
1.0
 40
1.0
 40
1.0
 10
-2.259771653543307
 20
0.0151614173228346
 30
0.0
 10
-2.259771653543307
 20
0.067496062992126
 30
0.0
 10
-2.283464566929134
 20
0.0936574803149606
 30
0.0
 10
-2.330850393700787
 20
0.0936574803149606
 30
0.0
 10
-2.330850393700787
 20
0.0936574803149606
 30
0.0
 10
-2.36001968503937
 20
0.0936574803149606
 30
0.0
 10
-2.380066929133858
 20
0.0861850393700787
 30
0.0
 10
-2.391003937007874
 20
0.0712322834645669
 30
0.0
 10
-2.391003937007874
 20
0.0712322834645669
 30
0.0
 10
-2.401948818897638
 20
0.0562834645669291
 30
0.0
 10
-2.407409448818898
 20
0.0375866141732283
 30
0.0
 10
-2.407409448818898
 20
0.0151614173228346
 30
0.0
 10
-2.407409448818898
 20
0.0151614173228346
 30
0.0
 10
-2.407409448818898
 20
0.0151614173228346
 30
0.0
 10
-2.407409448818898
 20
-1.689307086614173
 30
0.0
 10
-2.407409448818898
 20
-1.689307086614173
 30
0.0
 10
-2.407409448818898
 20
-1.689307086614173
 30
0.0
 10
-2.407409448818898
 20
-1.739145669291339
 30
0.0
 10
-2.380066929133858
 20
-1.764066929133858
 30
0.0
 10
-2.325385826771654
 20
-1.764066929133858
 30
0.0
 10
-2.325385826771654
 20
-1.764066929133858
 30
0.0
 10
-2.281629921259842
 20
-1.764066929133858
 30
0.0
 10
-2.259771653543307
 20
-1.739145669291339
 30
0.0
 10
-2.259771653543307
 20
-1.689307086614173
 30
0.0
 10
-2.259771653543307
 20
-1.689307086614173
 30
0.0
 10
-2.259771653543307
 20
-1.689307086614173
 30
0.0
 10
-2.259771653543307
 20
0.0151614173228346
 30
0.0
 10
-2.259771653543307
 20
0.0151614173228346
 30
0.0
  0
SPLINE
  5
7E
330
1F
100
AcDbEntity
  8
Layer 1
 62
   250
370
    18
100
AcDbSpline
210
0.0
220
0.0
230
1.0
 70
    11
 71
     3
 72
    32
 73
    28
 74
     0
 42
0.000000001
 43
0.0000000001
 40
0.0
 40
0.0
 40
0.0
 40
0.0
 40
0.125
 40
0.125
 40
0.125
 40
0.125
 40
0.25
 40
0.25
 40
0.25
 40
0.25
 40
0.375
 40
0.375
 40
0.375
 40
0.375
 40
0.5
 40
0.5
 40
0.5
 40
0.5
 40
0.625
 40
0.625
 40
0.625
 40
0.625
 40
0.75
 40
0.75
 40
0.75
 40
0.75
 40
1.0
 40
1.0
 40
1.0
 40
1.0
 10
-3.490330708661417
 20
0.2623700787401575
 30
0.0
 10
-3.490330708661417
 20
0.3456338582677165
 30
0.0
 10
-3.516972440944882
 20
0.387259842519685
 30
0.0
 10
-3.570259842519685
 20
0.387259842519685
 30
0.0
 10
-3.570259842519685
 20
0.387259842519685
 30
0.0
 10
-3.570259842519685
 20
0.387259842519685
 30
0.0
 10
-3.625216535433071
 20
0.387259842519685
 30
0.0
 10
-3.625216535433071
 20
0.387259842519685
 30
0.0
 10
-3.625216535433071
 20
0.387259842519685
 30
0.0
 10
-3.625216535433071
 20
0.387259842519685
 30
0.0
 10
-3.625216535433071
 20
-2.06061811023622
 30
0.0
 10
-3.625216535433071
 20
-2.06061811023622
 30
0.0
 10
-3.625216535433071
 20
-2.06061811023622
 30
0.0
 10
-3.625216535433071
 20
-2.06061811023622
 30
0.0
 10
-3.575255905511811
 20
-2.06061811023622
 30
0.0
 10
-3.575255905511811
 20
-2.06061811023622
 30
0.0
 10
-3.575255905511811
 20
-2.06061811023622
 30
0.0
 10
-3.538625984251969
 20
-2.06061811023622
 30
0.0
 10
-3.515311023622047
 20
-2.048964566929134
 30
0.0
 10
-3.505318897637795
 20
-2.025653543307087
 30
0.0
 10
-3.505318897637795
 20
-2.025653543307087
 30
0.0
 10
-3.495322834645669
 20
-2.002334645669291
 30
0.0
 10
-3.490330708661417
 20
-1.972358267716535
 30
0.0
 10
-3.490330708661417
 20
-1.935728346456693
 30
0.0
 10
-3.490330708661417
 20
-1.935728346456693
 30
0.0
 10
-3.490330708661417
 20
-1.935728346456693
 30
0.0
 10
-3.490330708661417
 20
0.2623700787401575
 30
0.0
 10
-3.490330708661417
 20
0.2623700787401575
 30
0.0
  0
SPLINE
  5
7F
330
1F
100
AcDbEntity
  8
Layer 1
 62
   250
370
    18
100
AcDbSpline
210
0.0
220
0.0
230
1.0
 70
    11
 71
     3
 72
    28
 73
    24
 74
     0
 42
0.000000001
 43
0.0000000001
 40
0.0
 40
0.0
 40
0.0
 40
0.0
 40
0.1428571428571428
 40
0.1428571428571428
 40
0.1428571428571428
 40
0.1428571428571428
 40
0.2857142857142857
 40
0.2857142857142857
 40
0.2857142857142857
 40
0.2857142857142857
 40
0.4285714285714285
 40
0.4285714285714285
 40
0.4285714285714285
 40
0.4285714285714285
 40
0.5714285714285714
 40
0.5714285714285714
 40
0.5714285714285714
 40
0.5714285714285714
 40
0.7142857142857143
 40
0.7142857142857143
 40
0.7142857142857143
 40
0.7142857142857143
 40
1.0
 40
1.0
 40
1.0
 40
1.0
 10
-5.948204724409448
 20
-1.141417322834646
 30
0.0
 10
-5.948204724409448
 20
-1.141417322834646
 30
0.0
 10
-5.808326771653543
 20
-1.141417322834646
 30
0.0
 10
-5.808326771653543
 20
-1.141417322834646
 30
0.0
 10
-5.808326771653543
 20
-1.141417322834646
 30
0.0
 10
-5.808326771653543
 20
-1.141417322834646
 30
0.0
 10
-5.808326771653543
 20
0.2973385826771653
 30
0.0
 10
-5.808326771653543
 20
0.2973385826771653
 30
0.0
 10
-5.808326771653543
 20
0.2973385826771653
 30
0.0
 10
-5.808326771653543
 20
0.3672755905511811
 30
0.0
 10
-5.829972440944882
 20
0.402244094488189
 30
0.0
 10
-5.873267716535433
 20
0.402244094488189
 30
0.0
 10
-5.873267716535433
 20
0.402244094488189
 30
0.0
 10
-5.903244094488189
 20
0.402244094488189
 30
0.0
 10
-5.923220472440945
 20
0.3914251968503937
 30
0.0
 10
-5.933212598425197
 20
0.3697755905511811
 30
0.0
 10
-5.933212598425197
 20
0.3697755905511811
 30
0.0
 10
-5.943208661417323
 20
0.3481259842519685
 30
0.0
 10
-5.948204724409448
 20
0.3239842519685039
 30
0.0
 10
-5.948204724409448
 20
0.2973385826771653
 30
0.0
 10
-5.948204724409448
 20
0.2973385826771653
 30
0.0
 10
-5.948204724409448
 20
0.2973385826771653
 30
0.0
 10
-5.948204724409448
 20
-1.141417322834646
 30
0.0
 10
-5.948204724409448
 20
-1.141417322834646
 30
0.0
  0
SPLINE
  5
80
330
1F
100
AcDbEntity
  8
Layer 1
 62
   250
370
    18
100
AcDbSpline
210
0.0
220
0.0
230
1.0
 70
    11
 71
     3
 72
    32
 73
    28
 74
     0
 42
0.000000001
 43
0.0000000001
 40
0.0
 40
0.0
 40
0.0
 40
0.0
 40
0.125
 40
0.125
 40
0.125
 40
0.125
 40
0.25
 40
0.25
 40
0.25
 40
0.25
 40
0.375
 40
0.375
 40
0.375
 40
0.375
 40
0.5
 40
0.5
 40
0.5
 40
0.5
 40
0.625
 40
0.625
 40
0.625
 40
0.625
 40
0.75
 40
0.75
 40
0.75
 40
0.75
 40
1.0
 40
1.0
 40
1.0
 40
1.0
 10
-6.837429133858268
 20
-0.9415866141732283
 30
0.0
 10
-6.837429133858268
 20
-0.9182755905511811
 30
0.0
 10
-6.840763779527559
 20
-0.8982874015748031
 30
0.0
 10
-6.847425196850394
 20
-0.8816377952755905
 30
0.0
 10
-6.847425196850394
 20
-0.8816377952755905
 30
0.0
 10
-6.854082677165354
 20
-0.864988188976378
 30
0.0
 10
-6.865740157480315
 20
-0.8566614173228346
 30
0.0
 10
-6.882389763779527
 20
-0.8566614173228346
 30
0.0
 10
-6.882389763779527
 20
-0.8566614173228346
 30
0.0
 10
-6.882389763779527
 20
-0.8566614173228346
 30
0.0
 10
-6.972314960629921
 20
-0.8566614173228346
 30
0.0
 10
-6.972314960629921
 20
-0.8566614173228346
 30
0.0
 10
-6.972314960629921
 20
-0.8566614173228346
 30
0.0
 10
-6.972314960629921
 20
-0.8566614173228346
 30
0.0
 10
-6.972314960629921
 20
-2.06061811023622
 30
0.0
 10
-6.972314960629921
 20
-2.06061811023622
 30
0.0
 10
-6.972314960629921
 20
-2.06061811023622
 30
0.0
 10
-6.972314960629921
 20
-2.06061811023622
 30
0.0
 10
-6.882389763779527
 20
-2.06061811023622
 30
0.0
 10
-6.882389763779527
 20
-2.06061811023622
 30
0.0
 10
-6.882389763779527
 20
-2.06061811023622
 30
0.0
 10
-6.852417322834646
 20
-2.06061811023622
 30
0.0
 10
-6.837429133858268
 20
-2.028976377952756
 30
0.0
 10
-6.837429133858268
 20
-1.965700787401575
 30
0.0
 10
-6.837429133858268
 20
-1.965700787401575
 30
0.0
 10
-6.837429133858268
 20
-1.965700787401575
 30
0.0
 10
-6.837429133858268
 20
-0.9415866141732283
 30
0.0
 10
-6.837429133858268
 20
-0.9415866141732283
 30
0.0
  0
SPLINE
  5
81
330
1F
100
AcDbEntity
  8
Layer 1
 62
   250
370
    18
100
AcDbSpline
210
0.0
220
0.0
230
1.0
 70
    11
 71
     3
 72
    28
 73
    24
 74
     0
 42
0.000000001
 43
0.0000000001
 40
0.0
 40
0.0
 40
0.0
 40
0.0
 40
0.1428571428571428
 40
0.1428571428571428
 40
0.1428571428571428
 40
0.1428571428571428
 40
0.2857142857142857
 40
0.2857142857142857
 40
0.2857142857142857
 40
0.2857142857142857
 40
0.4285714285714285
 40
0.4285714285714285
 40
0.4285714285714285
 40
0.4285714285714285
 40
0.5714285714285714
 40
0.5714285714285714
 40
0.5714285714285714
 40
0.5714285714285714
 40
0.7142857142857143
 40
0.7142857142857143
 40
0.7142857142857143
 40
0.7142857142857143
 40
1.0
 40
1.0
 40
1.0
 40
1.0
 10
-6.837429133858268
 20
0.2773543307086614
 30
0.0
 10
-6.837429133858268
 20
0.3506259842519685
 30
0.0
 10
-6.857413385826772
 20
0.387259842519685
 30
0.0
 10
-6.897377952755906
 20
0.387259842519685
 30
0.0
 10
-6.897377952755906
 20
0.387259842519685
 30
0.0
 10
-6.897377952755906
 20
0.387259842519685
 30
0.0
 10
-6.972314960629921
 20
0.387259842519685
 30
0.0
 10
-6.972314960629921
 20
0.387259842519685
 30
0.0
 10
-6.972314960629921
 20
0.387259842519685
 30
0.0
 10
-6.972314960629921
 20
0.387259842519685
 30
0.0
 10
-6.972314960629921
 20
-0.5269488188976378
 30
0.0
 10
-6.972314960629921
 20
-0.5269488188976378
 30
0.0
 10
-6.972314960629921
 20
-0.5269488188976378
 30
0.0
 10
-6.972314960629921
 20
-0.5269488188976378
 30
0.0
 10
-6.882389763779527
 20
-0.5269488188976378
 30
0.0
 10
-6.882389763779527
 20
-0.5269488188976378
 30
0.0
 10
-6.882389763779527
 20
-0.5269488188976378
 30
0.0
 10
-6.852417322834646
 20
-0.5269488188976378
 30
0.0
 10
-6.837429133858268
 20
-0.4953070866141732
 30
0.0
 10
-6.837429133858268
 20
-0.4320275590551181
 30
0.0
 10
-6.837429133858268
 20
-0.4320275590551181
 30
0.0
 10
-6.837429133858268
 20
-0.4320275590551181
 30
0.0
 10
-6.837429133858268
 20
0.2773543307086614
 30
0.0
 10
-6.837429133858268
 20
0.2773543307086614
 30
0.0
  0
ENDSEC
  0
SECTION
  2
OBJECTS
  0
DICTIONARY
  5
C
330
0
100
AcDbDictionary
281
     1
  3
ACAD_DETAILVIEWSTYLE
350
BD
  3
ACAD_GROUP
350
D
  3
ACAD_LAYOUT
350
1A
  3
ACAD_MATERIAL
350
43
  3
ACAD_MLEADERSTYLE
350
6B
  3
ACAD_MLINESTYLE
350
17
  3
ACAD_PLOTSETTINGS
350
19
  3
ACAD_PLOTSTYLENAME
350
E
  3
ACAD_SCALELIST
350
47
  3
ACAD_SECTIONVIEWSTYLE
350
BE
  3
ACAD_TABLESTYLE
350
69
  3
ACAD_VISUALSTYLE
350
2A
  3
ACDB_RECOMPOSE_DATA
350
BA
  3
AcDbVariableDictionary
350
82
  0
SUN
  5
6D
330
29
100
AcDbSun
 90
        1
290
     0
 63
     7
421
 16777215
 40
1.0
291
     1
 91
  2455826
 92
 54000000
292
     0
 70
     2
 71
   256
280
     1
  0
DICTIONARY
  5
BD
102
{ACAD_REACTORS
330
C
102
}
330
C
100
AcDbDictionary
281
     1
  0
DICTIONARY
  5
D
102
{ACAD_REACTORS
330
C
102
}
330
C
100
AcDbDictionary
281
     1
  0
DICTIONARY
  5
1A
102
{ACAD_REACTORS
330
C
102
}
330
C
100
AcDbDictionary
281
     1
  3
Layout1
350
1E
  3
Layout2
350
26
  3
Model
350
22
  0
DICTIONARY
  5
43
102
{ACAD_REACTORS
330
C
102
}
330
C
100
AcDbDictionary
281
     1
  3
ByBlock
350
45
  3
ByLayer
350
44
  3
Global
350
46
  0
DICTIONARY
  5
6B
102
{ACAD_REACTORS
330
C
102
}
330
C
100
AcDbDictionary
281
     1
  3
Standard
350
6C
  0
DICTIONARY
  5
17
102
{ACAD_REACTORS
330
C
102
}
330
C
100
AcDbDictionary
281
     1
  3
Standard
350
18
  0
DICTIONARY
  5
19
102
{ACAD_REACTORS
330
C
102
}
330
C
100
AcDbDictionary
281
     1
  0
ACDBDICTIONARYWDFLT
  5
E
102
{ACAD_REACTORS
330
C
102
}
330
C
100
AcDbDictionary
281
     1
  3
Normal
350
F
100
AcDbDictionaryWithDefault
340
F
  0
DICTIONARY
  5
47
102
{ACAD_REACTORS
330
C
102
}
330
C
100
AcDbDictionary
281
     1
  3
A0
350
48
  3
A1
350
49
  3
A2
350
4A
  3
A3
350
4B
  3
A4
350
4C
  3
A5
350
4D
  3
A6
350
4E
  3
A7
350
4F
  3
A8
350
50
  3
A9
350
51
  3
B0
350
52
  3
B1
350
53
  3
B2
350
54
  3
B3
350
55
  3
B4
350
56
  3
B5
350
57
  3
B6
350
58
  3
B7
350
59
  3
B8
350
5A
  3
B9
350
5B
  3
C0
350
5C
  3
C1
350
5D
  3
C2
350
5E
  3
C3
350
5F
  3
C4
350
60
  3
C5
350
61
  3
C6
350
62
  3
C7
350
63
  3
C8
350
64
  3
C9
350
65
  3
D0
350
66
  3
D1
350
67
  3
D2
350
68
  0
DICTIONARY
  5
BE
102
{ACAD_REACTORS
330
C
102
}
330
C
100
AcDbDictionary
281
     1
  0
DICTIONARY
  5
69
102
{ACAD_REACTORS
330
C
102
}
330
C
100
AcDbDictionary
281
     1
  3
Standard
350
6A
  0
DICTIONARY
  5
2A
102
{ACAD_REACTORS
330
C
102
}
330
C
100
AcDbDictionary
281
     1
  3
2dWireframe
350
2F
  3
Basic
350
32
  3
Brighten
350
36
  3
ColorChange
350
3A
  3
Conceptual
350
34
  3
Dim
350
35
  3
EdgeColorOff
350
3D
  3
Facepattern
350
39
  3
Flat
350
2B
  3
FlatWithEdges
350
2C
  3
Gouraud
350
2D
  3
GouraudWithEdges
350
2E
  3
Hidden
350
31
  3
JitterOff
350
3B
  3
Linepattern
350
38
  3
OverhangOff
350
3C
  3
Realistic
350
33
  3
Shaded
350
42
  3
Shaded with edges
350
41
  3
Shades of Gray
350
3E
  3
Sketchy
350
3F
  3
Thicken
350
37
  3
Wireframe
350
30
  3
X-Ray
350
40
  0
XRECORD
  5
BA
102
{ACAD_REACTORS
330
C
102
}
330
C
100
AcDbXrecord
280
     1
 90
        1
330
6A
  0
DICTIONARY
  5
82
102
{ACAD_REACTORS
330
C
102
}
330
C
100
AcDbDictionary
281
     1
  3
CANNOSCALE
350
83
  3
CMLEADERSTYLE
350
BC
  3
CTABLESTYLE
350
BB
  3
XCLIPFRAME
350
84
  0
LAYOUT
  5
1E
102
{ACAD_REACTORS
330
1A
102
}
330
1A
100
AcDbPlotSettings
  1

  2
none_device
  4

  6

 40
0.0
 41
0.0
 42
0.0
 43
0.0
 44
0.0
 45
0.0
 46
0.0
 47
0.0
 48
0.0
 49
0.0
140
0.0
141
0.0
142
1.0
143
1.0
 70
   688
 72
     0
 73
     0
 74
     5
  7

 75
    16
 76
     0
 77
     2
 78
   300
147
1.0
148
0.0
149
0.0
100
AcDbLayout
  1
Layout1
 70
     1
 71
     1
 10
0.0
 20
0.0
 11
12.0
 21
9.0
 12
0.0
 22
0.0
 32
0.0
 14
1.000000000000000E+20
 24
1.000000000000000E+20
 34
1.000000000000000E+20
 15
-1.000000000000000E+20
 25
-1.000000000000000E+20
 35
-1.000000000000000E+20
146
0.0
 13
0.0
 23
0.0
 33
0.0
 16
1.0
 26
0.0
 36
0.0
 17
0.0
 27
1.0
 37
0.0
 76
     0
330
1B
  0
LAYOUT
  5
26
102
{ACAD_REACTORS
330
1A
102
}
330
1A
100
AcDbPlotSettings
  1

  2
none_device
  4

  6

 40
0.0
 41
0.0
 42
0.0
 43
0.0
 44
0.0
 45
0.0
 46
0.0
 47
0.0
 48
0.0
 49
0.0
140
0.0
141
0.0
142
1.0
143
1.0
 70
   688
 72
     0
 73
     0
 74
     5
  7

 75
    16
 76
     0
 77
     2
 78
   300
147
1.0
148
0.0
149
0.0
100
AcDbLayout
  1
Layout2
 70
     1
 71
     2
 10
0.0
 20
0.0
 11
0.0
 21
0.0
 12
0.0
 22
0.0
 32
0.0
 14
0.0
 24
0.0
 34
0.0
 15
0.0
 25
0.0
 35
0.0
146
0.0
 13
0.0
 23
0.0
 33
0.0
 16
1.0
 26
0.0
 36
0.0
 17
0.0
 27
1.0
 37
0.0
 76
     0
330
23
  0
LAYOUT
  5
22
102
{ACAD_REACTORS
330
1A
102
}
330
1A
100
AcDbPlotSettings
  1

  2
none_device
  4
Letter_(8.50_x_11.00_Inches)
  6

 40
6.35
 41
6.35
 42
6.35000508
 43
6.35000508
 44
215.9
 45
279.4
 46
0.0
 47
0.0
 48
0.0
 49
0.0
140
0.0
141
0.0
142
1.0
143
1.0
 70
  1712
 72
     0
 73
     0
 74
     0
  7

 75
     0
 76
     0
 77
     2
 78
   300
147
1.0
148
0.0
149
0.0
100
AcDbLayout
  1
Model
 70
     1
 71
     0
 10
0.0
 20
0.0
 11
12.0
 21
9.0
 12
0.0
 22
0.0
 32
0.0
 14
-8.193098425196851
 24
-2.408795275590551
 34
0.0
 15
8.369645669291339
 25
8.81144094488189
 35
0.0
146
0.0
 13
0.0
 23
0.0
 33
0.0
 16
1.0
 26
0.0
 36
0.0
 17
0.0
 27
1.0
 37
0.0
 76
     0
330
1F
331
29
  0
MATERIAL
  5
45
102
{ACAD_REACTORS
330
43
102
}
330
43
100
AcDbMaterial
  1
ByBlock
 72
     1
 94
      127
  0
MATERIAL
  5
44
102
{ACAD_REACTORS
330
43
102
}
330
43
100
AcDbMaterial
  1
ByLayer
 72
     1
 94
      127
  0
MATERIAL
  5
46
102
{ACAD_REACTORS
330
43
102
}
330
43
100
AcDbMaterial
  1
Global
 72
     1
 94
      127
  0
MLEADERSTYLE
  5
6C
102
{ACAD_REACTORS
330
6B
102
}
102
{ACAD_XDICTIONARY
360
B8
102
}
330
6B
100
AcDbMLeaderStyle
170
     2
171
     1
172
     0
 90
        2
 40
0.0
 41
0.0
173
     1
 91
-1056964608
340
14
 92
       -2
290
     1
 42
0.09
291
     1
 43
0.36
  3
Standard
341
0
 44
0.18
300

342
11
174
     1
178
     6
175
     1
176
     0
 93
-1056964608
 45
0.18
292
     0
297
     0
 46
0.18
343
0
 94
-1056964608
 47
1.0
 49
1.0
140
1.0
293
     1
141
0.0
294
     1
177
     0
142
1.0
295
     0
296
     0
143
0.125
1001
ACAD_MLEADERVER
1070
     2
  0
MLINESTYLE
  5
18
102
{ACAD_REACTORS
330
17
102
}
330
17
100
AcDbMlineStyle
  2
Standard
 70
     0
  3

 62
   256
 51
90.0
 52
90.0
 71
     2
 49
0.5
 62
   256
  6
BYLAYER
 49
-0.5
 62
   256
  6
BYLAYER
  0
ACDBPLACEHOLDER
  5
F
102
{ACAD_REACTORS
330
E
102
}
330
E
  0
SCALE
  5
48
102
{ACAD_REACTORS
330
47
102
}
330
47
100
AcDbScale
 70
     0
300
1:1
140
1.0
141
1.0
290
     1
  0
SCALE
  5
49
102
{ACAD_REACTORS
330
47
102
}
330
47
100
AcDbScale
 70
     0
300
1:2
140
1.0
141
2.0
290
     0
  0
SCALE
  5
4A
102
{ACAD_REACTORS
330
47
102
}
330
47
100
AcDbScale
 70
     0
300
1:4
140
1.0
141
4.0
290
     0
  0
SCALE
  5
4B
102
{ACAD_REACTORS
330
47
102
}
330
47
100
AcDbScale
 70
     0
300
1:5
140
1.0
141
5.0
290
     0
  0
SCALE
  5
4C
102
{ACAD_REACTORS
330
47
102
}
330
47
100
AcDbScale
 70
     0
300
1:8
140
1.0
141
8.0
290
     0
  0
SCALE
  5
4D
102
{ACAD_REACTORS
330
47
102
}
330
47
100
AcDbScale
 70
     0
300
1:10
140
1.0
141
10.0
290
     0
  0
SCALE
  5
4E
102
{ACAD_REACTORS
330
47
102
}
330
47
100
AcDbScale
 70
     0
300
1:16
140
1.0
141
16.0
290
     0
  0
SCALE
  5
4F
102
{ACAD_REACTORS
330
47
102
}
330
47
100
AcDbScale
 70
     0
300
1:20
140
1.0
141
20.0
290
     0
  0
SCALE
  5
50
102
{ACAD_REACTORS
330
47
102
}
330
47
100
AcDbScale
 70
     0
300
1:30
140
1.0
141
30.0
290
     0
  0
SCALE
  5
51
102
{ACAD_REACTORS
330
47
102
}
330
47
100
AcDbScale
 70
     0
300
1:40
140
1.0
141
40.0
290
     0
  0
SCALE
  5
52
102
{ACAD_REACTORS
330
47
102
}
330
47
100
AcDbScale
 70
     0
300
1:50
140
1.0
141
50.0
290
     0
  0
SCALE
  5
53
102
{ACAD_REACTORS
330
47
102
}
330
47
100
AcDbScale
 70
     0
300
1:100
140
1.0
141
100.0
290
     0
  0
SCALE
  5
54
102
{ACAD_REACTORS
330
47
102
}
330
47
100
AcDbScale
 70
     0
300
2:1
140
2.0
141
1.0
290
     0
  0
SCALE
  5
55
102
{ACAD_REACTORS
330
47
102
}
330
47
100
AcDbScale
 70
     0
300
4:1
140
4.0
141
1.0
290
     0
  0
SCALE
  5
56
102
{ACAD_REACTORS
330
47
102
}
330
47
100
AcDbScale
 70
     0
300
8:1
140
8.0
141
1.0
290
     0
  0
SCALE
  5
57
102
{ACAD_REACTORS
330
47
102
}
330
47
100
AcDbScale
 70
     0
300
10:1
140
10.0
141
1.0
290
     0
  0
SCALE
  5
58
102
{ACAD_REACTORS
330
47
102
}
330
47
100
AcDbScale
 70
     0
300
100:1
140
100.0
141
1.0
290
     0
  0
SCALE
  5
59
102
{ACAD_REACTORS
330
47
102
}
330
47
100
AcDbScale
 70
     0
300
1/128" = 1'-0"
140
0.0078125
141
12.0
290
     0
  0
SCALE
  5
5A
102
{ACAD_REACTORS
330
47
102
}
330
47
100
AcDbScale
 70
     0
300
1/64" = 1'-0"
140
0.015625
141
12.0
290
     0
  0
SCALE
  5
5B
102
{ACAD_REACTORS
330
47
102
}
330
47
100
AcDbScale
 70
     0
300
1/32" = 1'-0"
140
0.03125
141
12.0
290
     0
  0
SCALE
  5
5C
102
{ACAD_REACTORS
330
47
102
}
330
47
100
AcDbScale
 70
     0
300
1/16" = 1'-0"
140
0.0625
141
12.0
290
     0
  0
SCALE
  5
5D
102
{ACAD_REACTORS
330
47
102
}
330
47
100
AcDbScale
 70
     0
300
3/32" = 1'-0"
140
0.09375
141
12.0
290
     0
  0
SCALE
  5
5E
102
{ACAD_REACTORS
330
47
102
}
330
47
100
AcDbScale
 70
     0
300
1/8" = 1'-0"
140
0.125
141
12.0
290
     0
  0
SCALE
  5
5F
102
{ACAD_REACTORS
330
47
102
}
330
47
100
AcDbScale
 70
     0
300
3/16" = 1'-0"
140
0.1875
141
12.0
290
     0
  0
SCALE
  5
60
102
{ACAD_REACTORS
330
47
102
}
330
47
100
AcDbScale
 70
     0
300
1/4" = 1'-0"
140
0.25
141
12.0
290
     0
  0
SCALE
  5
61
102
{ACAD_REACTORS
330
47
102
}
330
47
100
AcDbScale
 70
     0
300
3/8" = 1'-0"
140
0.375
141
12.0
290
     0
  0
SCALE
  5
62
102
{ACAD_REACTORS
330
47
102
}
330
47
100
AcDbScale
 70
     0
300
1/2" = 1'-0"
140
0.5
141
12.0
290
     0
  0
SCALE
  5
63
102
{ACAD_REACTORS
330
47
102
}
330
47
100
AcDbScale
 70
     0
300
3/4" = 1'-0"
140
0.75
141
12.0
290
     0
  0
SCALE
  5
64
102
{ACAD_REACTORS
330
47
102
}
330
47
100
AcDbScale
 70
     0
300
1" = 1'-0"
140
1.0
141
12.0
290
     0
  0
SCALE
  5
65
102
{ACAD_REACTORS
330
47
102
}
330
47
100
AcDbScale
 70
     0
300
1-1/2" = 1'-0"
140
1.5
141
12.0
290
     0
  0
SCALE
  5
66
102
{ACAD_REACTORS
330
47
102
}
330
47
100
AcDbScale
 70
     0
300
3" = 1'-0"
140
3.0
141
12.0
290
     0
  0
SCALE
  5
67
102
{ACAD_REACTORS
330
47
102
}
330
47
100
AcDbScale
 70
     0
300
6" = 1'-0"
140
6.0
141
12.0
290
     0
  0
SCALE
  5
68
102
{ACAD_REACTORS
330
47
102
}
330
47
100
AcDbScale
 70
     0
300
1'-0" = 1'-0"
140
12.0
141
12.0
290
     0
  0
TABLESTYLE
  5
6A
102
{ACAD_REACTORS
330
69
102
}
102
{ACAD_XDICTIONARY
360
B5
102
}
330
69
100
AcDbTableStyle
  3
Standard
 70
     0
 71
     0
 40
0.06
 41
0.06
280
     0
281
     0
  7
Standard
140
0.18
170
     2
 62
     0
 63
   257
283
     0
 90
        4
 91
        0
  1

274
    -2
284
     1
 64
     0
275
    -2
285
     1
 65
     0
276
    -2
286
     1
 66
     0
277
    -2
287
     1
 67
     0
278
    -2
288
     1
 68
     0
279
    -2
289
     1
 69
     0
  7
Standard
140
0.25
170
     5
 62
     0
 63
   257
283
     0
 90
        4
 91
        0
  1

274
    -2
284
     1
 64
     0
275
    -2
285
     1
 65
     0
276
    -2
286
     1
 66
     0
277
    -2
287
     1
 67
     0
278
    -2
288
     1
 68
     0
279
    -2
289
     1
 69
     0
  7
Standard
140
0.18
170
     5
 62
     0
 63
   257
283
     0
 90
        4
 91
        0
  1

274
    -2
284
     1
 64
     0
275
    -2
285
     1
 65
     0
276
    -2
286
     1
 66
     0
277
    -2
287
     1
 67
     0
278
    -2
288
     1
 68
     0
279
    -2
289
     1
 69
     0
  0
VISUALSTYLE
  5
2F
102
{ACAD_REACTORS
330
2A
102
}
102
{ACAD_XDICTIONARY
360
8D
102
}
330
2A
100
AcDbVisualStyle
  2
2dWireframe
 70
     4
 71
     0
 72
     2
 73
     0
 90
        0
 40
0.6
 41
30.0
 62
     5
 63
     7
421
 16777215
 74
     1
 91
        4
 64
     7
 65
   257
 75
     1
175
     1
 42
1.0
 92
        0
 66
   257
 43
1.0
 76
     1
 77
     6
 78
     2
 67
     7
 79
     5
170
     0
171
     0
290
     0
174
     0
 93
        1
 44
0.0
173
     0
291
     0
 45
0.0
  0
VISUALSTYLE
  5
32
102
{ACAD_REACTORS
330
2A
102
}
102
{ACAD_XDICTIONARY
360
93
102
}
330
2A
100
AcDbVisualStyle
  2
Basic
 70
     7
 71
     1
 72
     0
 73
     1
 90
        0
 40
0.6
 41
30.0
 62
     5
 63
     7
421
 16777215
 74
     0
 91
        4
 64
     7
 65
   257
 75
     1
175
     1
 42
1.0
 92
        8
 66
     7
 43
1.0
 76
     1
 77
     6
 78
     2
 67
     7
 79
     5
170
     0
171
     0
290
     0
174
     0
 93
        1
 44
0.0
173
     0
291
     1
 45
0.0
  0
VISUALSTYLE
  5
36
102
{ACAD_REACTORS
330
2A
102
}
102
{ACAD_XDICTIONARY
360
9B
102
}
330
2A
100
AcDbVisualStyle
  2
Brighten
 70
    12
 71
     2
 72
     2
 73
     0
 90
        0
 40
0.6
 41
30.0
 62
     5
 63
     7
421
 16777215
 74
     1
 91
        4
 64
     7
 65
   257
 75
     1
175
     1
 42
1.0
 92
        8
 66
     7
 43
1.0
 76
     1
 77
     6
 78
     2
 67
     7
 79
     5
170
     0
171
     0
290
     0
174
     0
 93
        1
 44
50.0
173
     0
291
     1
 45
0.0
  0
VISUALSTYLE
  5
3A
102
{ACAD_REACTORS
330
2A
102
}
102
{ACAD_XDICTIONARY
360
A3
102
}
330
2A
100
AcDbVisualStyle
  2
ColorChange
 70
    16
 71
     2
 72
     2
 73
     3
 90
        0
 40
0.6
 41
30.0
 62
     5
 63
     8
421
  8421504
 74
     1
 91
        4
 64
     7
 65
   257
 75
     1
175
     1
 42
1.0
 92
        8
 66
     8
424
  8421504
 43
1.0
 76
     1
 77
     6
 78
     2
 67
     7
 79
     5
170
     0
171
     0
290
     0
174
     0
 93
        1
 44
0.0
173
     0
291
     1
 45
0.0
  0
VISUALSTYLE
  5
34
102
{ACAD_REACTORS
330
2A
102
}
102
{ACAD_XDICTIONARY
360
97
102
}
330
2A
100
AcDbVisualStyle
  2
Conceptual
 70
     9
 71
     3
 72
     2
 73
     0
 90
        0
 40
0.6
 41
30.0
 62
     5
 63
     7
421
 16777215
 74
     2
 91
        2
 64
     7
 65
   257
 75
     1
175
     1
 42
179.0
 92
        8
 66
     7
 43
1.0
 76
     1
 77
     6
 78
     2
 67
     7
 79
     3
170
     0
171
     0
290
     0
174
     0
 93
        1
 44
0.0
173
     0
291
     0
 45
0.0
  0
VISUALSTYLE
  5
35
102
{ACAD_REACTORS
330
2A
102
}
102
{ACAD_XDICTIONARY
360
99
102
}
330
2A
100
AcDbVisualStyle
  2
Dim
 70
    11
 71
     2
 72
     2
 73
     0
 90
        0
 40
0.6
 41
30.0
 62
     5
 63
     7
421
 16777215
 74
     1
 91
        4
 64
     7
 65
   257
 75
     1
175
     1
 42
1.0
 92
        8
 66
     7
 43
1.0
 76
     1
 77
     6
 78
     2
 67
     7
 79
     5
170
     0
171
     0
290
     0
174
     0
 93
        1
 44
-50.0
173
     0
291
     1
 45
0.0
  0
VISUALSTYLE
  5
3D
102
{ACAD_REACTORS
330
2A
102
}
102
{ACAD_XDICTIONARY
360
A9
102
}
330
2A
100
AcDbVisualStyle
  2
EdgeColorOff
 70
    22
 71
     2
 72
     2
 73
     0
 90
        0
 40
0.6
 41
30.0
 62
     5
 63
     7
421
 16777215
 74
     1
 91
        4
 64
     7
 65
   257
 75
     1
175
     1
 42
1.0
 92
        8
 66
     7
 43
1.0
 76
     1
 77
     6
 78
     2
 67
     7
 79
     5
170
     0
171
     0
290
     0
174
     0
 93
        1
 44
0.0
173
     0
291
     1
 45
0.0
  0
VISUALSTYLE
  5
39
102
{ACAD_REACTORS
330
2A
102
}
102
{ACAD_XDICTIONARY
360
A1
102
}
330
2A
100
AcDbVisualStyle
  2
Facepattern
 70
    15
 71
     2
 72
     2
 73
     0
 90
        0
 40
0.6
 41
30.0
 62
     5
 63
     7
421
 16777215
 74
     1
 91
        4
 64
     7
 65
   257
 75
     1
175
     1
 42
1.0
 92
        8
 66
     7
 43
1.0
 76
     1
 77
     6
 78
     2
 67
     7
 79
     5
170
     0
171
     0
290
     0
174
     0
 93
        1
 44
0.0
173
     0
291
     1
 45
0.0
  0
VISUALSTYLE
  5
2B
102
{ACAD_REACTORS
330
2A
102
}
102
{ACAD_XDICTIONARY
360
85
102
}
330
2A
100
AcDbVisualStyle
  2
Flat
 70
     0
 71
     2
 72
     1
 73
     1
 90
        2
 40
0.6
 41
30.0
 62
     5
 63
     7
421
 16777215
 74
     0
 91
        0
 64
     7
 65
   257
 75
     1
175
     1
 42
1.0
 92
        8
 66
     7
 43
1.0
 76
     1
 77
     6
 78
     2
 67
     7
 79
     5
170
     0
171
     0
290
     0
174
     0
 93
       13
 44
0.0
173
     0
291
     1
 45
0.0
  0
VISUALSTYLE
  5
2C
102
{ACAD_REACTORS
330
2A
102
}
102
{ACAD_XDICTIONARY
360
87
102
}
330
2A
100
AcDbVisualStyle
  2
FlatWithEdges
 70
     1
 71
     2
 72
     1
 73
     1
 90
        2
 40
0.6
 41
30.0
 62
     5
 63
     7
421
 16777215
 74
     1
 91
        0
 64
     7
 65
   257
 75
     1
175
     1
 42
1.0
 92
        0
 66
   257
 43
1.0
 76
     1
 77
     6
 78
     2
 67
     7
 79
     5
170
     0
171
     0
290
     0
174
     0
 93
       13
 44
0.0
173
     0
291
     1
 45
0.0
  0
VISUALSTYLE
  5
2D
102
{ACAD_REACTORS
330
2A
102
}
102
{ACAD_XDICTIONARY
360
89
102
}
330
2A
100
AcDbVisualStyle
  2
Gouraud
 70
     2
 71
     2
 72
     2
 73
     1
 90
        2
 40
0.6
 41
30.0
 62
     5
 63
     7
421
 16777215
 74
     0
 91
        0
 64
     7
 65
   257
 75
     1
175
     1
 42
1.0
 92
        0
 66
     7
 43
1.0
 76
     1
 77
     6
 78
     2
 67
     7
 79
     5
170
     0
171
     0
290
     0
174
     0
 93
       13
 44
0.0
173
     0
291
     1
 45
0.0
  0
VISUALSTYLE
  5
2E
102
{ACAD_REACTORS
330
2A
102
}
102
{ACAD_XDICTIONARY
360
8B
102
}
330
2A
100
AcDbVisualStyle
  2
GouraudWithEdges
 70
     3
 71
     2
 72
     2
 73
     1
 90
        2
 40
0.6
 41
30.0
 62
     5
 63
     7
421
 16777215
 74
     1
 91
        0
 64
     7
 65
   257
 75
     1
175
     1
 42
1.0
 92
        0
 66
   257
 43
1.0
 76
     1
 77
     6
 78
     2
 67
     7
 79
     5
170
     0
171
     0
290
     0
174
     0
 93
       13
 44
0.0
173
     0
291
     1
 45
0.0
  0
VISUALSTYLE
  5
31
102
{ACAD_REACTORS
330
2A
102
}
102
{ACAD_XDICTIONARY
360
91
102
}
330
2A
100
AcDbVisualStyle
  2
Hidden
 70
     6
 71
     1
 72
     2
 73
     2
 90
        0
 40
0.6
 41
30.0
 62
     5
 63
     7
421
 16777215
 74
     2
 91
        2
 64
     7
 65
   257
 75
     2
175
     1
 42
40.0
 92
        0
 66
   257
 43
1.0
 76
     1
 77
     6
 78
     2
 67
     7
 79
     3
170
     0
171
     0
290
     0
174
     0
 93
        1
 44
0.0
173
     0
291
     0
 45
0.0
  0
VISUALSTYLE
  5
3B
102
{ACAD_REACTORS
330
2A
102
}
102
{ACAD_XDICTIONARY
360
A5
102
}
330
2A
100
AcDbVisualStyle
  2
JitterOff
 70
    20
 71
     2
 72
     2
 73
     0
 90
        0
 40
0.6
 41
30.0
 62
     5
 63
     7
421
 16777215
 74
     1
 91
        4
 64
     7
 65
   257
 75
     1
175
     1
 42
1.0
 92
       10
 66
     7
 43
1.0
 76
     1
 77
     6
 78
     2
 67
     7
 79
     5
170
     0
171
     0
290
     0
174
     0
 93
        1
 44
0.0
173
     0
291
     1
 45
0.0
  0
VISUALSTYLE
  5
38
102
{ACAD_REACTORS
330
2A
102
}
102
{ACAD_XDICTIONARY
360
9F
102
}
330
2A
100
AcDbVisualStyle
  2
Linepattern
 70
    14
 71
     2
 72
     2
 73
     0
 90
        0
 40
0.6
 41
30.0
 62
     5
 63
     7
421
 16777215
 74
     1
 91
        4
 64
     7
 65
   257
 75
     7
175
     7
 42
1.0
 92
        8
 66
     7
 43
1.0
 76
     1
 77
     6
 78
     2
 67
     7
 79
     5
170
     0
171
     0
290
     0
174
     0
 93
        1
 44
0.0
173
     0
291
     1
 45
0.0
  0
VISUALSTYLE
  5
3C
102
{ACAD_REACTORS
330
2A
102
}
102
{ACAD_XDICTIONARY
360
A7
102
}
330
2A
100
AcDbVisualStyle
  2
OverhangOff
 70
    21
 71
     2
 72
     2
 73
     0
 90
        0
 40
0.6
 41
30.0
 62
     5
 63
     7
421
 16777215
 74
     1
 91
        4
 64
     7
 65
   257
 75
     1
175
     1
 42
1.0
 92
        9
 66
     7
 43
1.0
 76
     1
 77
     6
 78
     2
 67
     7
 79
     5
170
     0
171
     0
290
     0
174
     0
 93
        1
 44
0.0
173
     0
291
     1
 45
0.0
  0
VISUALSTYLE
  5
33
102
{ACAD_REACTORS
330
2A
102
}
102
{ACAD_XDICTIONARY
360
95
102
}
330
2A
100
AcDbVisualStyle
  2
Realistic
 70
     8
 71
     2
 72
     3
 73
     0
 90
        2
 40
0.6
 41
30.0
 62
     5
 63
     7
421
 16777215
 74
     0
 91
        0
 64
     7
 65
   257
 75
     1
175
     1
 42
1.0
 92
        8
 66
   257
 43
1.0
 76
     1
 77
     6
 78
     2
 67
     7
 79
     3
170
     0
171
     0
290
     0
174
     0
 93
       13
 44
0.0
173
     0
291
     0
 45
0.0
  0
VISUALSTYLE
  5
42
102
{ACAD_REACTORS
330
2A
102
}
102
{ACAD_XDICTIONARY
360
B3
102
}
330
2A
100
AcDbVisualStyle
  2
Shaded
 70
    27
 71
     2
 72
     2
 73
     1
 90
        2
 40
0.6
 41
30.0
 62
     5
 63
     7
421
 16777215
 74
     0
 91
        4
 64
     7
 65
   257
 75
     1
175
     1
 42
1.0
 92
        8
 66
   257
 43
1.0
 76
     1
 77
     6
 78
     2
 67
     8
425
  7895160
 79
     3
170
     0
171
     0
290
     0
174
     0
 93
        5
 44
0.0
173
     0
291
     0
 45
0.0
  0
VISUALSTYLE
  5
41
102
{ACAD_REACTORS
330
2A
102
}
102
{ACAD_XDICTIONARY
360
B1
102
}
330
2A
100
AcDbVisualStyle
  2
Shaded with edges
 70
    26
 71
     2
 72
     2
 73
     1
 90
        2
 40
0.6
 41
30.0
 62
     5
 63
     7
421
 16777215
 74
     1
 91
       10
 64
     7
 65
   257
 75
     2
175
     1
 42
1.0
 92
        8
 66
   257
 43
1.0
 76
     1
 77
     6
 78
     2
 67
     7
 79
     3
170
     0
171
     0
290
     0
174
     0
 93
        5
 44
0.0
173
     0
291
     0
 45
0.0
  0
VISUALSTYLE
  5
3E
102
{ACAD_REACTORS
330
2A
102
}
102
{ACAD_XDICTIONARY
360
AB
102
}
330
2A
100
AcDbVisualStyle
  2
Shades of Gray
 70
    23
 71
     2
 72
     2
 73
     3
 90
        0
 40
0.6
 41
30.0
 62
     5
 63
     7
421
 16777215
 74
     2
 91
        2
 64
     7
 65
     7
 75
     1
175
     1
 42
40.0
 92
        8
 66
     7
 43
1.0
 76
     1
 77
     6
 78
     2
 67
     7
 79
     3
170
     0
171
     0
290
     0
174
     0
 93
        1
 44
0.0
173
     0
291
     0
 45
0.0
  0
VISUALSTYLE
  5
3F
102
{ACAD_REACTORS
330
2A
102
}
102
{ACAD_XDICTIONARY
360
AD
102
}
330
2A
100
AcDbVisualStyle
  2
Sketchy
 70
    24
 71
     1
 72
     2
 73
     2
 90
        0
 40
0.6
 41
30.0
 62
     5
 63
     7
421
 16777215
 74
     2
 91
        2
 64
     7
 65
     7
 75
     1
175
     1
 42
40.0
 92
       11
 66
     7
 43
1.0
 76
     1
 77
     6
 78
     2
 67
     7
 79
     6
170
     0
171
     0
290
     0
174
     0
 93
        1
 44
0.0
173
     0
291
     0
 45
0.0
  0
VISUALSTYLE
  5
37
102
{ACAD_REACTORS
330
2A
102
}
102
{ACAD_XDICTIONARY
360
9D
102
}
330
2A
100
AcDbVisualStyle
  2
Thicken
 70
    13
 71
     2
 72
     2
 73
     0
 90
        0
 40
0.6
 41
30.0
 62
     5
 63
     7
421
 16777215
 74
     1
 91
        4
 64
     7
 65
   257
 75
     1
175
     1
 42
1.0
 92
       12
 66
     7
 43
1.0
 76
     1
 77
     6
 78
     2
 67
     7
 79
     5
170
     0
171
     0
290
     0
174
     0
 93
        1
 44
0.0
173
     0
291
     1
 45
0.0
  0
VISUALSTYLE
  5
30
102
{ACAD_REACTORS
330
2A
102
}
102
{ACAD_XDICTIONARY
360
8F
102
}
330
2A
100
AcDbVisualStyle
  2
Wireframe
 70
     5
 71
     0
 72
     2
 73
     0
 90
        0
 40
0.6
 41
30.0
 62
     5
 63
     7
421
 16777215
 74
     1
 91
        4
 64
     7
 65
   257
 75
     1
175
     1
 42
1.0
 92
        0
 66
   257
 43
1.0
 76
     1
 77
     6
 78
     2
 67
     7
 79
     3
170
     0
171
     0
290
     0
174
     0
 93
        1
 44
0.0
173
     0
291
     0
 45
0.0
  0
VISUALSTYLE
  5
40
102
{ACAD_REACTORS
330
2A
102
}
102
{ACAD_XDICTIONARY
360
AF
102
}
330
2A
100
AcDbVisualStyle
  2
X-Ray
 70
    25
 71
     2
 72
     2
 73
     1
 90
        1
 40
0.5
 41
30.0
 62
     5
 63
     7
421
 16777215
 74
     1
 91
        0
 64
     7
 65
   257
 75
     1
175
     1
 42
1.0
 92
        8
 66
     7
 43
1.0
 76
     1
 77
     6
 78
     2
 67
     7
 79
     3
170
     0
171
     0
290
     0
174
     0
 93
       13
 44
0.0
173
     0
291
     0
 45
0.0
  0
DICTIONARYVAR
  5
83
102
{ACAD_REACTORS
330
82
102
}
330
82
100
DictionaryVariables
280
     0
  1
1:1
  0
DICTIONARYVAR
  5
BC
102
{ACAD_REACTORS
330
82
102
}
330
82
100
DictionaryVariables
280
     0
  1
Standard
  0
DICTIONARYVAR
  5
BB
102
{ACAD_REACTORS
330
82
102
}
330
82
100
DictionaryVariables
280
     0
  1
Standard
  0
DICTIONARYVAR
  5
84
102
{ACAD_REACTORS
330
82
102
}
330
82
100
DictionaryVariables
280
     0
  1
2
  0
DICTIONARY
  5
B8
330
6C
100
AcDbDictionary
280
     1
281
     1
  3
ACAD_XREC_ROUNDTRIP
360
B9
  0
DICTIONARY
  5
B5
330
6A
100
AcDbDictionary
280
     1
281
     1
  3
ACAD_ROUNDTRIP_2008_TABLESTYLE_CELLSTYLEMAP
360
B6
  0
DICTIONARY
  5
8D
330
2F
100
AcDbDictionary
280
     1
281
     1
  3
ACAD_XREC_ROUNDTRIP
360
8E
  0
DICTIONARY
  5
93
330
32
100
AcDbDictionary
280
     1
281
     1
  3
ACAD_XREC_ROUNDTRIP
360
94
  0
DICTIONARY
  5
9B
330
36
100
AcDbDictionary
280
     1
281
     1
  3
ACAD_XREC_ROUNDTRIP
360
9C
  0
DICTIONARY
  5
A3
330
3A
100
AcDbDictionary
280
     1
281
     1
  3
ACAD_XREC_ROUNDTRIP
360
A4
  0
DICTIONARY
  5
97
330
34
100
AcDbDictionary
280
     1
281
     1
  3
ACAD_XREC_ROUNDTRIP
360
98
  0
DICTIONARY
  5
99
330
35
100
AcDbDictionary
280
     1
281
     1
  3
ACAD_XREC_ROUNDTRIP
360
9A
  0
DICTIONARY
  5
A9
330
3D
100
AcDbDictionary
280
     1
281
     1
  3
ACAD_XREC_ROUNDTRIP
360
AA
  0
DICTIONARY
  5
A1
330
39
100
AcDbDictionary
280
     1
281
     1
  3
ACAD_XREC_ROUNDTRIP
360
A2
  0
DICTIONARY
  5
85
330
2B
100
AcDbDictionary
280
     1
281
     1
  3
ACAD_XREC_ROUNDTRIP
360
86
  0
DICTIONARY
  5
87
330
2C
100
AcDbDictionary
280
     1
281
     1
  3
ACAD_XREC_ROUNDTRIP
360
88
  0
DICTIONARY
  5
89
330
2D
100
AcDbDictionary
280
     1
281
     1
  3
ACAD_XREC_ROUNDTRIP
360
8A
  0
DICTIONARY
  5
8B
330
2E
100
AcDbDictionary
280
     1
281
     1
  3
ACAD_XREC_ROUNDTRIP
360
8C
  0
DICTIONARY
  5
91
330
31
100
AcDbDictionary
280
     1
281
     1
  3
ACAD_XREC_ROUNDTRIP
360
92
  0
DICTIONARY
  5
A5
330
3B
100
AcDbDictionary
280
     1
281
     1
  3
ACAD_XREC_ROUNDTRIP
360
A6
  0
DICTIONARY
  5
9F
330
38
100
AcDbDictionary
280
     1
281
     1
  3
ACAD_XREC_ROUNDTRIP
360
A0
  0
DICTIONARY
  5
A7
330
3C
100
AcDbDictionary
280
     1
281
     1
  3
ACAD_XREC_ROUNDTRIP
360
A8
  0
DICTIONARY
  5
95
330
33
100
AcDbDictionary
280
     1
281
     1
  3
ACAD_XREC_ROUNDTRIP
360
96
  0
DICTIONARY
  5
B3
330
42
100
AcDbDictionary
280
     1
281
     1
  3
ACAD_XREC_ROUNDTRIP
360
B4
  0
DICTIONARY
  5
B1
330
41
100
AcDbDictionary
280
     1
281
     1
  3
ACAD_XREC_ROUNDTRIP
360
B2
  0
DICTIONARY
  5
AB
330
3E
100
AcDbDictionary
280
     1
281
     1
  3
ACAD_XREC_ROUNDTRIP
360
AC
  0
DICTIONARY
  5
AD
330
3F
100
AcDbDictionary
280
     1
281
     1
  3
ACAD_XREC_ROUNDTRIP
360
AE
  0
DICTIONARY
  5
9D
330
37
100
AcDbDictionary
280
     1
281
     1
  3
ACAD_XREC_ROUNDTRIP
360
9E
  0
DICTIONARY
  5
8F
330
30
100
AcDbDictionary
280
     1
281
     1
  3
ACAD_XREC_ROUNDTRIP
360
90
  0
DICTIONARY
  5
AF
330
40
100
AcDbDictionary
280
     1
281
     1
  3
ACAD_XREC_ROUNDTRIP
360
B0
  0
XRECORD
  5
B9
102
{ACAD_REACTORS
330
B8
102
}
330
B8
100
AcDbXrecord
280
     1
102
ACAD_ROUNDTRIP_2010_MLEADER_STYLE
  0
CELLSTYLEMAP
  5
B6
102
{ACAD_REACTORS
330
B5
102
}
330
B5
100
AcDbCellStyleMap
 90
        3
300
CELLSTYLE
  1
TABLEFORMAT_BEGIN
 90
        5
170
     1
 91
        0
 92
    32768
 62
   257
 93
        1
300
CONTENTFORMAT
  1
CONTENTFORMAT_BEGIN
 90
        0
 91
        0
 92
        4
 93
        0
300

 40
0.0
140
1.0
 94
        5
 62
     0
340
11
144
0.25
309
CONTENTFORMAT_END
171
     1
301
MARGIN
  1
CELLMARGIN_BEGIN
 40
0.06
 40
0.06
 40
0.06
 40
0.06
 40
0.06
 40
0.06
309
CELLMARGIN_END
 94
        6
 95
        1
302
GRIDFORMAT
  1
GRIDFORMAT_BEGIN
 90
        0
 91
        1
 62
     0
 92
       -2
340
14
 93
        0
 40
0.045
309
GRIDFORMAT_END
 95
        2
302
GRIDFORMAT
  1
GRIDFORMAT_BEGIN
 90
        0
 91
        1
 62
     0
 92
       -2
340
14
 93
        0
 40
0.045
309
GRIDFORMAT_END
 95
        4
302
GRIDFORMAT
  1
GRIDFORMAT_BEGIN
 90
        0
 91
        1
 62
     0
 92
       -2
340
14
 93
        0
 40
0.045
309
GRIDFORMAT_END
 95
        8
302
GRIDFORMAT
  1
GRIDFORMAT_BEGIN
 90
        0
 91
        1
 62
     0
 92
       -2
340
14
 93
        0
 40
0.045
309
GRIDFORMAT_END
 95
       16
302
GRIDFORMAT
  1
GRIDFORMAT_BEGIN
 90
        0
 91
        1
 62
     0
 92
       -2
340
14
 93
        0
 40
0.045
309
GRIDFORMAT_END
 95
       32
302
GRIDFORMAT
  1
GRIDFORMAT_BEGIN
 90
        0
 91
        1
 62
     0
 92
       -2
340
14
 93
        0
 40
0.045
309
GRIDFORMAT_END
309
TABLEFORMAT_END
  1
CELLSTYLE_BEGIN
 90
        1
 91
        1
300
_TITLE
309
CELLSTYLE_END
300
CELLSTYLE
  1
TABLEFORMAT_BEGIN
 90
        5
170
     1
 91
        0
 92
        0
 62
   257
 93
        1
300
CONTENTFORMAT
  1
CONTENTFORMAT_BEGIN
 90
        0
 91
        0
 92
        4
 93
        0
300

 40
0.0
140
1.0
 94
        5
 62
     0
340
11
144
0.18
309
CONTENTFORMAT_END
171
     1
301
MARGIN
  1
CELLMARGIN_BEGIN
 40
0.06
 40
0.06
 40
0.06
 40
0.06
 40
0.06
 40
0.06
309
CELLMARGIN_END
 94
        6
 95
        1
302
GRIDFORMAT
  1
GRIDFORMAT_BEGIN
 90
        0
 91
        1
 62
     0
 92
       -2
340
14
 93
        0
 40
0.045
309
GRIDFORMAT_END
 95
        2
302
GRIDFORMAT
  1
GRIDFORMAT_BEGIN
 90
        0
 91
        1
 62
     0
 92
       -2
340
14
 93
        0
 40
0.045
309
GRIDFORMAT_END
 95
        4
302
GRIDFORMAT
  1
GRIDFORMAT_BEGIN
 90
        0
 91
        1
 62
     0
 92
       -2
340
14
 93
        0
 40
0.045
309
GRIDFORMAT_END
 95
        8
302
GRIDFORMAT
  1
GRIDFORMAT_BEGIN
 90
        0
 91
        1
 62
     0
 92
       -2
340
14
 93
        0
 40
0.045
309
GRIDFORMAT_END
 95
       16
302
GRIDFORMAT
  1
GRIDFORMAT_BEGIN
 90
        0
 91
        1
 62
     0
 92
       -2
340
14
 93
        0
 40
0.045
309
GRIDFORMAT_END
 95
       32
302
GRIDFORMAT
  1
GRIDFORMAT_BEGIN
 90
        0
 91
        1
 62
     0
 92
       -2
340
14
 93
        0
 40
0.045
309
GRIDFORMAT_END
309
TABLEFORMAT_END
  1
CELLSTYLE_BEGIN
 90
        2
 91
        1
300
_HEADER
309
CELLSTYLE_END
300
CELLSTYLE
  1
TABLEFORMAT_BEGIN
 90
        5
170
     1
 91
        0
 92
        0
 62
   257
 93
        1
300
CONTENTFORMAT
  1
CONTENTFORMAT_BEGIN
 90
        0
 91
        0
 92
        4
 93
        0
300

 40
0.0
140
1.0
 94
        2
 62
     0
340
11
144
0.18
309
CONTENTFORMAT_END
171
     1
301
MARGIN
  1
CELLMARGIN_BEGIN
 40
0.06
 40
0.06
 40
0.06
 40
0.06
 40
0.06
 40
0.06
309
CELLMARGIN_END
 94
        6
 95
        1
302
GRIDFORMAT
  1
GRIDFORMAT_BEGIN
 90
        0
 91
        1
 62
     0
 92
       -2
340
14
 93
        0
 40
0.045
309
GRIDFORMAT_END
 95
        2
302
GRIDFORMAT
  1
GRIDFORMAT_BEGIN
 90
        0
 91
        1
 62
     0
 92
       -2
340
14
 93
        0
 40
0.045
309
GRIDFORMAT_END
 95
        4
302
GRIDFORMAT
  1
GRIDFORMAT_BEGIN
 90
        0
 91
        1
 62
     0
 92
       -2
340
14
 93
        0
 40
0.045
309
GRIDFORMAT_END
 95
        8
302
GRIDFORMAT
  1
GRIDFORMAT_BEGIN
 90
        0
 91
        1
 62
     0
 92
       -2
340
14
 93
        0
 40
0.045
309
GRIDFORMAT_END
 95
       16
302
GRIDFORMAT
  1
GRIDFORMAT_BEGIN
 90
        0
 91
        1
 62
     0
 92
       -2
340
14
 93
        0
 40
0.045
309
GRIDFORMAT_END
 95
       32
302
GRIDFORMAT
  1
GRIDFORMAT_BEGIN
 90
        0
 91
        1
 62
     0
 92
       -2
340
14
 93
        0
 40
0.045
309
GRIDFORMAT_END
309
TABLEFORMAT_END
  1
CELLSTYLE_BEGIN
 90
        3
 91
        2
300
_DATA
309
CELLSTYLE_END
  0
XRECORD
  5
8E
102
{ACAD_REACTORS
330
8D
102
}
330
8D
100
AcDbXrecord
280
     1
102
RTVSPropertyOp0
 70
     1
102
RTVSPropertyOp1
 70
     1
102
RTVSPropertyOp2
 70
     1
102
RTVSPropertyOp3
 70
     1
102
RTVSPropertyOp4
 70
     1
102
RTVSPropertyOp5
 70
     1
102
RTVSPropertyOp6
 70
     1
102
RTVSPropertyOp7
 70
     1
102
RTVSPropertyOp8
 70
     1
102
RTVSPropertyOp9
 70
     1
102
RTVSPropertyOp10
 70
     1
102
RTVSPropertyOp11
 70
     1
102
RTVSPropertyOp12
 70
     1
102
RTVSPropertyOp13
 70
     1
102
RTVSPropertyOp14
 70
     1
102
RTVSPropertyOp15
 70
     1
102
RTVSPropertyOp16
 70
     1
102
RTVSPropertyOp17
 70
     1
102
RTVSPropertyOp18
 70
     1
102
RTVSPropertyOp19
 70
     1
102
RTVSPropertyOp20
 70
     1
102
RTVSPropertyOp21
 70
     1
102
RTVSPropertyOp22
 70
     1
102
RTVSPropertyOp23
 70
     1
102
RTVSPropertyOp24
 70
     1
102
RTVSPropertyOp25
 70
     1
102
RTVSPropertyOp26
 70
     1
102
RTVSPropertyOp27
 70
     1
102
RTVSPropertyOp28
 70
     1
102
RTVSPropertyOp29
 70
     1
102
RTVSPropertyOp30
 70
     1
102
RTVSPropertyOp31
 70
     1
102
RTVSPropertyOp32
 70
     1
102
RTVSPropertyOp33
 70
     1
102
RTVSPropertyOp34
 70
     1
102
RTVSPropertyOp35
 70
     1
102
RTVSPropertyOp36
 70
     1
102
RTVSPropertyOp37
 70
     1
102
RTVSPropertyOp38
 70
     1
102
RTVSPropertyOp39
 70
     1
102
RTVSPropertyOp40
 70
     1
102
RTVSPropertyOp41
 70
     1
102
RTVSPropertyOp42
 70
     1
102
RTVSPropertyOp43
 70
     1
102
RTVSPropertyOp44
 70
     1
102
RTVSPropertyOp45
 70
     1
102
RTVSPropertyOp46
 70
     1
102
RTVSPropertyOp47
 70
     1
102
RTVSPropertyOp48
 70
     1
102
RTVSPropertyOp49
 70
     1
102
RTVSPropertyOp50
 70
     1
102
RTVSPropertyOp51
 70
     0
102
RTVSPropertyOp52
 70
     0
102
RTVSPropertyOp53
 70
     1
102
RTVSPropertyOp54
 70
     1
102
RTVSPropertyOp55
 70
     1
102
RTVSPropertyOp56
 70
     1
102
RTVSPropertyOp57
 70
     1
102
RTVSPost2010Prop28
280
     1
102
RTVSPost2010PropOp28
 70
     1
102
RTVSPost2010Prop29
280
     1
102
RTVSPost2010PropOp29
 70
     1
102
RTVSPost2010Prop30
280
     0
102
RTVSPost2010PropOp30
 70
     1
102
RTVSPost2010Prop31
280
     0
102
RTVSPost2010PropOp31
 70
     1
102
RTVSPost2010Prop32
280
     0
102
RTVSPost2010PropOp32
 70
     1
102
RTVSPost2010Prop33
280
     0
102
RTVSPost2010PropOp33
 70
     1
102
RTVSPost2010Prop34
280
     0
102
RTVSPost2010PropOp34
 70
     1
102
RTVSPost2010Prop35
280
     0
102
RTVSPost2010PropOp35
 70
     1
102
RTVSPost2010Prop36
280
     0
102
RTVSPost2010PropOp36
 70
     1
102
RTVSPost2010Prop37
 90
       50
102
RTVSPost2010PropOp37
 70
     1
102
RTVSPost2010Prop38
140
0.0
102
RTVSPost2010PropOp38
 70
     1
102
RTVSPost2010Prop39
140
1.0
102
RTVSPost2010PropOp39
 70
     1
102
RTVSPost2010Prop40
 90
        0
102
RTVSPost2010PropOp40
 70
     1
102
RTVSPost2010Prop41ColorIndex
 90
       18
102
RTVSPost2010Prop41ColorRGB
 90
        0
102
RTVSPost2010PropOp41
 70
     1
102
RTVSPost2010Prop42
 90
       50
102
RTVSPost2010PropOp42
 70
     1
102
RTVSPost2010Prop43
 90
        3
102
RTVSPost2010PropOp43
 70
     1
102
RTVSPost2010Prop44ColorIndex
 90
        5
102
RTVSPost2010Prop44ColorRGB
 90
      255
102
RTVSPost2010PropOp44
 70
     1
102
RTVSPost2010Prop45
280
     0
102
RTVSPost2010PropOp45
 70
     1
102
RTVSPost2010Prop46
 90
       50
102
RTVSPost2010PropOp46
 70
     1
102
RTVSPost2010Prop47
 90
       50
102
RTVSPost2010PropOp47
 70
     1
102
RTVSPost2010Prop48
 90
       50
102
RTVSPost2010PropOp48
 70
     1
102
RTVSPost2010Prop49
280
     0
102
RTVSPost2010PropOp49
 70
     1
102
RTVSPost2010Prop50
 90
       50
102
RTVSPost2010PropOp50
 70
     1
102
RTVSPost2010Prop51ColorIndex
 90
      256
102
RTVSPost2010Prop51ColorRGB
 90
-16777216
102
RTVSPost2010PropOp51
 70
     0
102
RTVSPost2010Prop52
140
1.0
102
RTVSPost2010PropOp52
 70
     0
102
RTVSPost2010Prop53
 90
        2
102
RTVSPost2010PropOp53
 70
     1
102
RTVSPost2010Prop54
  1
strokes_ogs.tif
102
RTVSPost2010PropOp54
 70
     1
102
RTVSPost2010Prop55
280
     0
102
RTVSPost2010PropOp55
 70
     1
102
RTVSPost2010Prop56
140
1.0
102
RTVSPost2010PropOp56
 70
     1
102
RTVSPost2010Prop57
140
1.0
102
RTVSPost2010PropOp57
 70
     1
  0
XRECORD
  5
94
102
{ACAD_REACTORS
330
93
102
}
330
93
100
AcDbXrecord
280
     1
102
RTVSPropertyOp0
 70
     1
102
RTVSPropertyOp1
 70
     1
102
RTVSPropertyOp2
 70
     1
102
RTVSPropertyOp3
 70
     1
102
RTVSPropertyOp4
 70
     1
102
RTVSPropertyOp5
 70
     1
102
RTVSPropertyOp6
 70
     1
102
RTVSPropertyOp7
 70
     1
102
RTVSPropertyOp8
 70
     1
102
RTVSPropertyOp9
 70
     1
102
RTVSPropertyOp10
 70
     1
102
RTVSPropertyOp11
 70
     1
102
RTVSPropertyOp12
 70
     1
102
RTVSPropertyOp13
 70
     1
102
RTVSPropertyOp14
 70
     1
102
RTVSPropertyOp15
 70
     1
102
RTVSPropertyOp16
 70
     1
102
RTVSPropertyOp17
 70
     1
102
RTVSPropertyOp18
 70
     1
102
RTVSPropertyOp19
 70
     1
102
RTVSPropertyOp20
 70
     1
102
RTVSPropertyOp21
 70
     1
102
RTVSPropertyOp22
 70
     1
102
RTVSPropertyOp23
 70
     1
102
RTVSPropertyOp24
 70
     1
102
RTVSPropertyOp25
 70
     1
102
RTVSPropertyOp26
 70
     1
102
RTVSPropertyOp27
 70
     1
102
RTVSPropertyOp28
 70
     1
102
RTVSPropertyOp29
 70
     1
102
RTVSPropertyOp30
 70
     1
102
RTVSPropertyOp31
 70
     1
102
RTVSPropertyOp32
 70
     1
102
RTVSPropertyOp33
 70
     1
102
RTVSPropertyOp34
 70
     1
102
RTVSPropertyOp35
 70
     1
102
RTVSPropertyOp36
 70
     1
102
RTVSPropertyOp37
 70
     1
102
RTVSPropertyOp38
 70
     1
102
RTVSPropertyOp39
 70
     1
102
RTVSPropertyOp40
 70
     1
102
RTVSPropertyOp41
 70
     1
102
RTVSPropertyOp42
 70
     1
102
RTVSPropertyOp43
 70
     1
102
RTVSPropertyOp44
 70
     1
102
RTVSPropertyOp45
 70
     1
102
RTVSPropertyOp46
 70
     1
102
RTVSPropertyOp47
 70
     1
102
RTVSPropertyOp48
 70
     1
102
RTVSPropertyOp49
 70
     1
102
RTVSPropertyOp50
 70
     1
102
RTVSPropertyOp51
 70
     0
102
RTVSPropertyOp52
 70
     0
102
RTVSPropertyOp53
 70
     1
102
RTVSPropertyOp54
 70
     1
102
RTVSPropertyOp55
 70
     1
102
RTVSPropertyOp56
 70
     1
102
RTVSPropertyOp57
 70
     1
102
RTVSPost2010Prop28
280
     0
102
RTVSPost2010PropOp28
 70
     1
102
RTVSPost2010Prop29
280
     1
102
RTVSPost2010PropOp29
 70
     1
102
RTVSPost2010Prop30
280
     1
102
RTVSPost2010PropOp30
 70
     1
102
RTVSPost2010Prop31
280
     0
102
RTVSPost2010PropOp31
 70
     1
102
RTVSPost2010Prop32
280
     0
102
RTVSPost2010PropOp32
 70
     1
102
RTVSPost2010Prop33
280
     0
102
RTVSPost2010PropOp33
 70
     1
102
RTVSPost2010Prop34
280
     0
102
RTVSPost2010PropOp34
 70
     1
102
RTVSPost2010Prop35
280
     0
102
RTVSPost2010PropOp35
 70
     1
102
RTVSPost2010Prop36
280
     0
102
RTVSPost2010PropOp36
 70
     1
102
RTVSPost2010Prop37
 90
       50
102
RTVSPost2010PropOp37
 70
     1
102
RTVSPost2010Prop38
140
0.0
102
RTVSPost2010PropOp38
 70
     1
102
RTVSPost2010Prop39
140
1.0
102
RTVSPost2010PropOp39
 70
     1
102
RTVSPost2010Prop40
 90
        0
102
RTVSPost2010PropOp40
 70
     1
102
RTVSPost2010Prop41ColorIndex
 90
       18
102
RTVSPost2010Prop41ColorRGB
 90
        0
102
RTVSPost2010PropOp41
 70
     1
102
RTVSPost2010Prop42
 90
       50
102
RTVSPost2010PropOp42
 70
     1
102
RTVSPost2010Prop43
 90
        3
102
RTVSPost2010PropOp43
 70
     1
102
RTVSPost2010Prop44ColorIndex
 90
        5
102
RTVSPost2010Prop44ColorRGB
 90
      255
102
RTVSPost2010PropOp44
 70
     1
102
RTVSPost2010Prop45
280
     0
102
RTVSPost2010PropOp45
 70
     1
102
RTVSPost2010Prop46
 90
       50
102
RTVSPost2010PropOp46
 70
     1
102
RTVSPost2010Prop47
 90
       50
102
RTVSPost2010PropOp47
 70
     1
102
RTVSPost2010Prop48
 90
       50
102
RTVSPost2010PropOp48
 70
     1
102
RTVSPost2010Prop49
280
     0
102
RTVSPost2010PropOp49
 70
     1
102
RTVSPost2010Prop50
 90
       50
102
RTVSPost2010PropOp50
 70
     1
102
RTVSPost2010Prop51ColorIndex
 90
      256
102
RTVSPost2010Prop51ColorRGB
 90
-16777216
102
RTVSPost2010PropOp51
 70
     0
102
RTVSPost2010Prop52
140
1.0
102
RTVSPost2010PropOp52
 70
     0
102
RTVSPost2010Prop53
 90
        2
102
RTVSPost2010PropOp53
 70
     1
102
RTVSPost2010Prop54
  1
strokes_ogs.tif
102
RTVSPost2010PropOp54
 70
     1
102
RTVSPost2010Prop55
280
     0
102
RTVSPost2010PropOp55
 70
     1
102
RTVSPost2010Prop56
140
1.0
102
RTVSPost2010PropOp56
 70
     1
102
RTVSPost2010Prop57
140
1.0
102
RTVSPost2010PropOp57
 70
     1
  0
XRECORD
  5
9C
102
{ACAD_REACTORS
330
9B
102
}
330
9B
100
AcDbXrecord
280
     1
102
RTVSPropertyOp0
 70
     1
102
RTVSPropertyOp1
 70
     1
102
RTVSPropertyOp2
 70
     1
102
RTVSPropertyOp3
 70
     1
102
RTVSPropertyOp4
 70
     1
102
RTVSPropertyOp5
 70
     1
102
RTVSPropertyOp6
 70
     1
102
RTVSPropertyOp7
 70
     1
102
RTVSPropertyOp8
 70
     1
102
RTVSPropertyOp9
 70
     1
102
RTVSPropertyOp10
 70
     1
102
RTVSPropertyOp11
 70
     1
102
RTVSPropertyOp12
 70
     1
102
RTVSPropertyOp13
 70
     1
102
RTVSPropertyOp14
 70
     1
102
RTVSPropertyOp15
 70
     1
102
RTVSPropertyOp16
 70
     1
102
RTVSPropertyOp17
 70
     1
102
RTVSPropertyOp18
 70
     1
102
RTVSPropertyOp19
 70
     1
102
RTVSPropertyOp20
 70
     1
102
RTVSPropertyOp21
 70
     1
102
RTVSPropertyOp22
 70
     1
102
RTVSPropertyOp23
 70
     1
102
RTVSPropertyOp24
 70
     1
102
RTVSPropertyOp25
 70
     1
102
RTVSPropertyOp26
 70
     1
102
RTVSPropertyOp27
 70
     1
102
RTVSPropertyOp28
 70
     1
102
RTVSPropertyOp29
 70
     1
102
RTVSPropertyOp30
 70
     1
102
RTVSPropertyOp31
 70
     1
102
RTVSPropertyOp32
 70
     1
102
RTVSPropertyOp33
 70
     1
102
RTVSPropertyOp34
 70
     1
102
RTVSPropertyOp35
 70
     1
102
RTVSPropertyOp36
 70
     1
102
RTVSPropertyOp37
 70
     1
102
RTVSPropertyOp38
 70
     1
102
RTVSPropertyOp39
 70
     1
102
RTVSPropertyOp40
 70
     1
102
RTVSPropertyOp41
 70
     1
102
RTVSPropertyOp42
 70
     1
102
RTVSPropertyOp43
 70
     1
102
RTVSPropertyOp44
 70
     1
102
RTVSPropertyOp45
 70
     1
102
RTVSPropertyOp46
 70
     1
102
RTVSPropertyOp47
 70
     1
102
RTVSPropertyOp48
 70
     1
102
RTVSPropertyOp49
 70
     1
102
RTVSPropertyOp50
 70
     1
102
RTVSPropertyOp51
 70
     0
102
RTVSPropertyOp52
 70
     0
102
RTVSPropertyOp53
 70
     1
102
RTVSPropertyOp54
 70
     1
102
RTVSPropertyOp55
 70
     1
102
RTVSPropertyOp56
 70
     1
102
RTVSPropertyOp57
 70
     1
102
RTVSPost2010Prop28
280
     0
102
RTVSPost2010PropOp28
 70
     1
102
RTVSPost2010Prop29
280
     1
102
RTVSPost2010PropOp29
 70
     1
102
RTVSPost2010Prop30
280
     1
102
RTVSPost2010PropOp30
 70
     1
102
RTVSPost2010Prop31
280
     0
102
RTVSPost2010PropOp31
 70
     1
102
RTVSPost2010Prop32
280
     0
102
RTVSPost2010PropOp32
 70
     1
102
RTVSPost2010Prop33
280
     0
102
RTVSPost2010PropOp33
 70
     1
102
RTVSPost2010Prop34
280
     0
102
RTVSPost2010PropOp34
 70
     1
102
RTVSPost2010Prop35
280
     0
102
RTVSPost2010PropOp35
 70
     1
102
RTVSPost2010Prop36
280
     0
102
RTVSPost2010PropOp36
 70
     1
102
RTVSPost2010Prop37
 90
       50
102
RTVSPost2010PropOp37
 70
     1
102
RTVSPost2010Prop38
140
0.0
102
RTVSPost2010PropOp38
 70
     1
102
RTVSPost2010Prop39
140
1.0
102
RTVSPost2010PropOp39
 70
     1
102
RTVSPost2010Prop40
 90
        0
102
RTVSPost2010PropOp40
 70
     1
102
RTVSPost2010Prop41ColorIndex
 90
       18
102
RTVSPost2010Prop41ColorRGB
 90
        0
102
RTVSPost2010PropOp41
 70
     1
102
RTVSPost2010Prop42
 90
       50
102
RTVSPost2010PropOp42
 70
     1
102
RTVSPost2010Prop43
 90
        3
102
RTVSPost2010PropOp43
 70
     1
102
RTVSPost2010Prop44ColorIndex
 90
        5
102
RTVSPost2010Prop44ColorRGB
 90
      255
102
RTVSPost2010PropOp44
 70
     1
102
RTVSPost2010Prop45
280
     0
102
RTVSPost2010PropOp45
 70
     1
102
RTVSPost2010Prop46
 90
       50
102
RTVSPost2010PropOp46
 70
     1
102
RTVSPost2010Prop47
 90
       50
102
RTVSPost2010PropOp47
 70
     1
102
RTVSPost2010Prop48
 90
       50
102
RTVSPost2010PropOp48
 70
     1
102
RTVSPost2010Prop49
280
     0
102
RTVSPost2010PropOp49
 70
     1
102
RTVSPost2010Prop50
 90
       50
102
RTVSPost2010PropOp50
 70
     1
102
RTVSPost2010Prop51ColorIndex
 90
      256
102
RTVSPost2010Prop51ColorRGB
 90
-16777216
102
RTVSPost2010PropOp51
 70
     0
102
RTVSPost2010Prop52
140
1.0
102
RTVSPost2010PropOp52
 70
     0
102
RTVSPost2010Prop53
 90
        2
102
RTVSPost2010PropOp53
 70
     1
102
RTVSPost2010Prop54
  1
strokes_ogs.tif
102
RTVSPost2010PropOp54
 70
     1
102
RTVSPost2010Prop55
280
     0
102
RTVSPost2010PropOp55
 70
     1
102
RTVSPost2010Prop56
140
1.0
102
RTVSPost2010PropOp56
 70
     1
102
RTVSPost2010Prop57
140
1.0
102
RTVSPost2010PropOp57
 70
     1
  0
XRECORD
  5
A4
102
{ACAD_REACTORS
330
A3
102
}
330
A3
100
AcDbXrecord
280
     1
102
RTVSPropertyOp0
 70
     1
102
RTVSPropertyOp1
 70
     1
102
RTVSPropertyOp2
 70
     1
102
RTVSPropertyOp3
 70
     1
102
RTVSPropertyOp4
 70
     1
102
RTVSPropertyOp5
 70
     1
102
RTVSPropertyOp6
 70
     1
102
RTVSPropertyOp7
 70
     1
102
RTVSPropertyOp8
 70
     1
102
RTVSPropertyOp9
 70
     1
102
RTVSPropertyOp10
 70
     1
102
RTVSPropertyOp11
 70
     1
102
RTVSPropertyOp12
 70
     1
102
RTVSPropertyOp13
 70
     1
102
RTVSPropertyOp14
 70
     1
102
RTVSPropertyOp15
 70
     1
102
RTVSPropertyOp16
 70
     1
102
RTVSPropertyOp17
 70
     1
102
RTVSPropertyOp18
 70
     1
102
RTVSPropertyOp19
 70
     1
102
RTVSPropertyOp20
 70
     1
102
RTVSPropertyOp21
 70
     1
102
RTVSPropertyOp22
 70
     1
102
RTVSPropertyOp23
 70
     1
102
RTVSPropertyOp24
 70
     1
102
RTVSPropertyOp25
 70
     1
102
RTVSPropertyOp26
 70
     1
102
RTVSPropertyOp27
 70
     1
102
RTVSPropertyOp28
 70
     1
102
RTVSPropertyOp29
 70
     1
102
RTVSPropertyOp30
 70
     1
102
RTVSPropertyOp31
 70
     1
102
RTVSPropertyOp32
 70
     1
102
RTVSPropertyOp33
 70
     1
102
RTVSPropertyOp34
 70
     1
102
RTVSPropertyOp35
 70
     1
102
RTVSPropertyOp36
 70
     1
102
RTVSPropertyOp37
 70
     1
102
RTVSPropertyOp38
 70
     1
102
RTVSPropertyOp39
 70
     1
102
RTVSPropertyOp40
 70
     1
102
RTVSPropertyOp41
 70
     1
102
RTVSPropertyOp42
 70
     1
102
RTVSPropertyOp43
 70
     1
102
RTVSPropertyOp44
 70
     1
102
RTVSPropertyOp45
 70
     1
102
RTVSPropertyOp46
 70
     1
102
RTVSPropertyOp47
 70
     1
102
RTVSPropertyOp48
 70
     1
102
RTVSPropertyOp49
 70
     1
102
RTVSPropertyOp50
 70
     1
102
RTVSPropertyOp51
 70
     0
102
RTVSPropertyOp52
 70
     0
102
RTVSPropertyOp53
 70
     1
102
RTVSPropertyOp54
 70
     1
102
RTVSPropertyOp55
 70
     1
102
RTVSPropertyOp56
 70
     1
102
RTVSPropertyOp57
 70
     1
102
RTVSPost2010Prop28
280
     0
102
RTVSPost2010PropOp28
 70
     1
102
RTVSPost2010Prop29
280
     1
102
RTVSPost2010PropOp29
 70
     1
102
RTVSPost2010Prop30
280
     1
102
RTVSPost2010PropOp30
 70
     1
102
RTVSPost2010Prop31
280
     0
102
RTVSPost2010PropOp31
 70
     1
102
RTVSPost2010Prop32
280
     0
102
RTVSPost2010PropOp32
 70
     1
102
RTVSPost2010Prop33
280
     0
102
RTVSPost2010PropOp33
 70
     1
102
RTVSPost2010Prop34
280
     0
102
RTVSPost2010PropOp34
 70
     1
102
RTVSPost2010Prop35
280
     0
102
RTVSPost2010PropOp35
 70
     1
102
RTVSPost2010Prop36
280
     0
102
RTVSPost2010PropOp36
 70
     1
102
RTVSPost2010Prop37
 90
       50
102
RTVSPost2010PropOp37
 70
     1
102
RTVSPost2010Prop38
140
0.0
102
RTVSPost2010PropOp38
 70
     1
102
RTVSPost2010Prop39
140
1.0
102
RTVSPost2010PropOp39
 70
     1
102
RTVSPost2010Prop40
 90
        0
102
RTVSPost2010PropOp40
 70
     1
102
RTVSPost2010Prop41ColorIndex
 90
       18
102
RTVSPost2010Prop41ColorRGB
 90
        0
102
RTVSPost2010PropOp41
 70
     1
102
RTVSPost2010Prop42
 90
       50
102
RTVSPost2010PropOp42
 70
     1
102
RTVSPost2010Prop43
 90
        3
102
RTVSPost2010PropOp43
 70
     1
102
RTVSPost2010Prop44ColorIndex
 90
        5
102
RTVSPost2010Prop44ColorRGB
 90
      255
102
RTVSPost2010PropOp44
 70
     1
102
RTVSPost2010Prop45
280
     0
102
RTVSPost2010PropOp45
 70
     1
102
RTVSPost2010Prop46
 90
       50
102
RTVSPost2010PropOp46
 70
     1
102
RTVSPost2010Prop47
 90
       50
102
RTVSPost2010PropOp47
 70
     1
102
RTVSPost2010Prop48
 90
       50
102
RTVSPost2010PropOp48
 70
     1
102
RTVSPost2010Prop49
280
     0
102
RTVSPost2010PropOp49
 70
     1
102
RTVSPost2010Prop50
 90
       50
102
RTVSPost2010PropOp50
 70
     1
102
RTVSPost2010Prop51ColorIndex
 90
      256
102
RTVSPost2010Prop51ColorRGB
 90
-16777216
102
RTVSPost2010PropOp51
 70
     0
102
RTVSPost2010Prop52
140
1.0
102
RTVSPost2010PropOp52
 70
     0
102
RTVSPost2010Prop53
 90
        2
102
RTVSPost2010PropOp53
 70
     1
102
RTVSPost2010Prop54
  1
strokes_ogs.tif
102
RTVSPost2010PropOp54
 70
     1
102
RTVSPost2010Prop55
280
     0
102
RTVSPost2010PropOp55
 70
     1
102
RTVSPost2010Prop56
140
1.0
102
RTVSPost2010PropOp56
 70
     1
102
RTVSPost2010Prop57
140
1.0
102
RTVSPost2010PropOp57
 70
     1
  0
XRECORD
  5
98
102
{ACAD_REACTORS
330
97
102
}
330
97
100
AcDbXrecord
280
     1
102
RTVSPropertyOp0
 70
     1
102
RTVSPropertyOp1
 70
     1
102
RTVSPropertyOp2
 70
     1
102
RTVSPropertyOp3
 70
     1
102
RTVSPropertyOp4
 70
     1
102
RTVSPropertyOp5
 70
     1
102
RTVSPropertyOp6
 70
     1
102
RTVSPropertyOp7
 70
     1
102
RTVSPropertyOp8
 70
     1
102
RTVSPropertyOp9
 70
     1
102
RTVSPropertyOp10
 70
     1
102
RTVSPropertyOp11
 70
     1
102
RTVSPropertyOp12
 70
     1
102
RTVSPropertyOp13
 70
     1
102
RTVSPropertyOp14
 70
     1
102
RTVSPropertyOp15
 70
     1
102
RTVSPropertyOp16
 70
     1
102
RTVSPropertyOp17
 70
     1
102
RTVSPropertyOp18
 70
     1
102
RTVSPropertyOp19
 70
     1
102
RTVSPropertyOp20
 70
     1
102
RTVSPropertyOp21
 70
     1
102
RTVSPropertyOp22
 70
     1
102
RTVSPropertyOp23
 70
     1
102
RTVSPropertyOp24
 70
     1
102
RTVSPropertyOp25
 70
     1
102
RTVSPropertyOp26
 70
     1
102
RTVSPropertyOp27
 70
     1
102
RTVSPropertyOp28
 70
     1
102
RTVSPropertyOp29
 70
     1
102
RTVSPropertyOp30
 70
     1
102
RTVSPropertyOp31
 70
     1
102
RTVSPropertyOp32
 70
     1
102
RTVSPropertyOp33
 70
     1
102
RTVSPropertyOp34
 70
     1
102
RTVSPropertyOp35
 70
     1
102
RTVSPropertyOp36
 70
     1
102
RTVSPropertyOp37
 70
     1
102
RTVSPropertyOp38
 70
     1
102
RTVSPropertyOp39
 70
     1
102
RTVSPropertyOp40
 70
     1
102
RTVSPropertyOp41
 70
     1
102
RTVSPropertyOp42
 70
     1
102
RTVSPropertyOp43
 70
     1
102
RTVSPropertyOp44
 70
     1
102
RTVSPropertyOp45
 70
     1
102
RTVSPropertyOp46
 70
     1
102
RTVSPropertyOp47
 70
     1
102
RTVSPropertyOp48
 70
     1
102
RTVSPropertyOp49
 70
     1
102
RTVSPropertyOp50
 70
     1
102
RTVSPropertyOp51
 70
     0
102
RTVSPropertyOp52
 70
     0
102
RTVSPropertyOp53
 70
     1
102
RTVSPropertyOp54
 70
     1
102
RTVSPropertyOp55
 70
     1
102
RTVSPropertyOp56
 70
     1
102
RTVSPropertyOp57
 70
     1
102
RTVSPost2010Prop28
280
     0
102
RTVSPost2010PropOp28
 70
     1
102
RTVSPost2010Prop29
280
     1
102
RTVSPost2010PropOp29
 70
     1
102
RTVSPost2010Prop30
280
     1
102
RTVSPost2010PropOp30
 70
     1
102
RTVSPost2010Prop31
280
     0
102
RTVSPost2010PropOp31
 70
     1
102
RTVSPost2010Prop32
280
     0
102
RTVSPost2010PropOp32
 70
     1
102
RTVSPost2010Prop33
280
     0
102
RTVSPost2010PropOp33
 70
     1
102
RTVSPost2010Prop34
280
     0
102
RTVSPost2010PropOp34
 70
     1
102
RTVSPost2010Prop35
280
     0
102
RTVSPost2010PropOp35
 70
     1
102
RTVSPost2010Prop36
280
     0
102
RTVSPost2010PropOp36
 70
     1
102
RTVSPost2010Prop37
 90
       50
102
RTVSPost2010PropOp37
 70
     1
102
RTVSPost2010Prop38
140
0.0
102
RTVSPost2010PropOp38
 70
     1
102
RTVSPost2010Prop39
140
1.0
102
RTVSPost2010PropOp39
 70
     1
102
RTVSPost2010Prop40
 90
        0
102
RTVSPost2010PropOp40
 70
     1
102
RTVSPost2010Prop41ColorIndex
 90
       18
102
RTVSPost2010Prop41ColorRGB
 90
        0
102
RTVSPost2010PropOp41
 70
     1
102
RTVSPost2010Prop42
 90
       50
102
RTVSPost2010PropOp42
 70
     1
102
RTVSPost2010Prop43
 90
        3
102
RTVSPost2010PropOp43
 70
     1
102
RTVSPost2010Prop44ColorIndex
 90
        5
102
RTVSPost2010Prop44ColorRGB
 90
      255
102
RTVSPost2010PropOp44
 70
     1
102
RTVSPost2010Prop45
280
     0
102
RTVSPost2010PropOp45
 70
     1
102
RTVSPost2010Prop46
 90
       50
102
RTVSPost2010PropOp46
 70
     1
102
RTVSPost2010Prop47
 90
       50
102
RTVSPost2010PropOp47
 70
     1
102
RTVSPost2010Prop48
 90
       50
102
RTVSPost2010PropOp48
 70
     1
102
RTVSPost2010Prop49
280
     0
102
RTVSPost2010PropOp49
 70
     1
102
RTVSPost2010Prop50
 90
       50
102
RTVSPost2010PropOp50
 70
     1
102
RTVSPost2010Prop51ColorIndex
 90
      256
102
RTVSPost2010Prop51ColorRGB
 90
-16777216
102
RTVSPost2010PropOp51
 70
     0
102
RTVSPost2010Prop52
140
1.0
102
RTVSPost2010PropOp52
 70
     0
102
RTVSPost2010Prop53
 90
        2
102
RTVSPost2010PropOp53
 70
     1
102
RTVSPost2010Prop54
  1
strokes_ogs.tif
102
RTVSPost2010PropOp54
 70
     1
102
RTVSPost2010Prop55
280
     0
102
RTVSPost2010PropOp55
 70
     1
102
RTVSPost2010Prop56
140
1.0
102
RTVSPost2010PropOp56
 70
     1
102
RTVSPost2010Prop57
140
1.0
102
RTVSPost2010PropOp57
 70
     1
  0
XRECORD
  5
9A
102
{ACAD_REACTORS
330
99
102
}
330
99
100
AcDbXrecord
280
     1
102
RTVSPropertyOp0
 70
     1
102
RTVSPropertyOp1
 70
     1
102
RTVSPropertyOp2
 70
     1
102
RTVSPropertyOp3
 70
     1
102
RTVSPropertyOp4
 70
     1
102
RTVSPropertyOp5
 70
     1
102
RTVSPropertyOp6
 70
     1
102
RTVSPropertyOp7
 70
     1
102
RTVSPropertyOp8
 70
     1
102
RTVSPropertyOp9
 70
     1
102
RTVSPropertyOp10
 70
     1
102
RTVSPropertyOp11
 70
     1
102
RTVSPropertyOp12
 70
     1
102
RTVSPropertyOp13
 70
     1
102
RTVSPropertyOp14
 70
     1
102
RTVSPropertyOp15
 70
     1
102
RTVSPropertyOp16
 70
     1
102
RTVSPropertyOp17
 70
     1
102
RTVSPropertyOp18
 70
     1
102
RTVSPropertyOp19
 70
     1
102
RTVSPropertyOp20
 70
     1
102
RTVSPropertyOp21
 70
     1
102
RTVSPropertyOp22
 70
     1
102
RTVSPropertyOp23
 70
     1
102
RTVSPropertyOp24
 70
     1
102
RTVSPropertyOp25
 70
     1
102
RTVSPropertyOp26
 70
     1
102
RTVSPropertyOp27
 70
     1
102
RTVSPropertyOp28
 70
     1
102
RTVSPropertyOp29
 70
     1
102
RTVSPropertyOp30
 70
     1
102
RTVSPropertyOp31
 70
     1
102
RTVSPropertyOp32
 70
     1
102
RTVSPropertyOp33
 70
     1
102
RTVSPropertyOp34
 70
     1
102
RTVSPropertyOp35
 70
     1
102
RTVSPropertyOp36
 70
     1
102
RTVSPropertyOp37
 70
     1
102
RTVSPropertyOp38
 70
     1
102
RTVSPropertyOp39
 70
     1
102
RTVSPropertyOp40
 70
     1
102
RTVSPropertyOp41
 70
     1
102
RTVSPropertyOp42
 70
     1
102
RTVSPropertyOp43
 70
     1
102
RTVSPropertyOp44
 70
     1
102
RTVSPropertyOp45
 70
     1
102
RTVSPropertyOp46
 70
     1
102
RTVSPropertyOp47
 70
     1
102
RTVSPropertyOp48
 70
     1
102
RTVSPropertyOp49
 70
     1
102
RTVSPropertyOp50
 70
     1
102
RTVSPropertyOp51
 70
     0
102
RTVSPropertyOp52
 70
     0
102
RTVSPropertyOp53
 70
     1
102
RTVSPropertyOp54
 70
     1
102
RTVSPropertyOp55
 70
     1
102
RTVSPropertyOp56
 70
     1
102
RTVSPropertyOp57
 70
     1
102
RTVSPost2010Prop28
280
     0
102
RTVSPost2010PropOp28
 70
     1
102
RTVSPost2010Prop29
280
     1
102
RTVSPost2010PropOp29
 70
     1
102
RTVSPost2010Prop30
280
     1
102
RTVSPost2010PropOp30
 70
     1
102
RTVSPost2010Prop31
280
     0
102
RTVSPost2010PropOp31
 70
     1
102
RTVSPost2010Prop32
280
     0
102
RTVSPost2010PropOp32
 70
     1
102
RTVSPost2010Prop33
280
     0
102
RTVSPost2010PropOp33
 70
     1
102
RTVSPost2010Prop34
280
     0
102
RTVSPost2010PropOp34
 70
     1
102
RTVSPost2010Prop35
280
     0
102
RTVSPost2010PropOp35
 70
     1
102
RTVSPost2010Prop36
280
     0
102
RTVSPost2010PropOp36
 70
     1
102
RTVSPost2010Prop37
 90
       50
102
RTVSPost2010PropOp37
 70
     1
102
RTVSPost2010Prop38
140
0.0
102
RTVSPost2010PropOp38
 70
     1
102
RTVSPost2010Prop39
140
1.0
102
RTVSPost2010PropOp39
 70
     1
102
RTVSPost2010Prop40
 90
        0
102
RTVSPost2010PropOp40
 70
     1
102
RTVSPost2010Prop41ColorIndex
 90
       18
102
RTVSPost2010Prop41ColorRGB
 90
        0
102
RTVSPost2010PropOp41
 70
     1
102
RTVSPost2010Prop42
 90
       50
102
RTVSPost2010PropOp42
 70
     1
102
RTVSPost2010Prop43
 90
        3
102
RTVSPost2010PropOp43
 70
     1
102
RTVSPost2010Prop44ColorIndex
 90
        5
102
RTVSPost2010Prop44ColorRGB
 90
      255
102
RTVSPost2010PropOp44
 70
     1
102
RTVSPost2010Prop45
280
     0
102
RTVSPost2010PropOp45
 70
     1
102
RTVSPost2010Prop46
 90
       50
102
RTVSPost2010PropOp46
 70
     1
102
RTVSPost2010Prop47
 90
       50
102
RTVSPost2010PropOp47
 70
     1
102
RTVSPost2010Prop48
 90
       50
102
RTVSPost2010PropOp48
 70
     1
102
RTVSPost2010Prop49
280
     0
102
RTVSPost2010PropOp49
 70
     1
102
RTVSPost2010Prop50
 90
       50
102
RTVSPost2010PropOp50
 70
     1
102
RTVSPost2010Prop51ColorIndex
 90
      256
102
RTVSPost2010Prop51ColorRGB
 90
-16777216
102
RTVSPost2010PropOp51
 70
     0
102
RTVSPost2010Prop52
140
1.0
102
RTVSPost2010PropOp52
 70
     0
102
RTVSPost2010Prop53
 90
        2
102
RTVSPost2010PropOp53
 70
     1
102
RTVSPost2010Prop54
  1
strokes_ogs.tif
102
RTVSPost2010PropOp54
 70
     1
102
RTVSPost2010Prop55
280
     0
102
RTVSPost2010PropOp55
 70
     1
102
RTVSPost2010Prop56
140
1.0
102
RTVSPost2010PropOp56
 70
     1
102
RTVSPost2010Prop57
140
1.0
102
RTVSPost2010PropOp57
 70
     1
  0
XRECORD
  5
AA
102
{ACAD_REACTORS
330
A9
102
}
330
A9
100
AcDbXrecord
280
     1
102
RTVSPropertyOp0
 70
     0
102
RTVSPropertyOp1
 70
     0
102
RTVSPropertyOp2
 70
     0
102
RTVSPropertyOp3
 70
     0
102
RTVSPropertyOp4
 70
     0
102
RTVSPropertyOp5
 70
     0
102
RTVSPropertyOp6
 70
     0
102
RTVSPropertyOp7
 70
     0
102
RTVSPropertyOp8
 70
     0
102
RTVSPropertyOp9
 70
     0
102
RTVSPropertyOp10
 70
     0
102
RTVSPropertyOp11
 70
     0
102
RTVSPropertyOp12
 70
     0
102
RTVSPropertyOp13
 70
     0
102
RTVSPropertyOp14
 70
     2
102
RTVSPropertyOp15
 70
     0
102
RTVSPropertyOp16
 70
     0
102
RTVSPropertyOp17
 70
     0
102
RTVSPropertyOp18
 70
     0
102
RTVSPropertyOp19
 70
     0
102
RTVSPropertyOp20
 70
     0
102
RTVSPropertyOp21
 70
     0
102
RTVSPropertyOp22
 70
     0
102
RTVSPropertyOp23
 70
     0
102
RTVSPropertyOp24
 70
     0
102
RTVSPropertyOp25
 70
     0
102
RTVSPropertyOp26
 70
     0
102
RTVSPropertyOp27
 70
     0
102
RTVSPropertyOp28
 70
     0
102
RTVSPropertyOp29
 70
     0
102
RTVSPropertyOp30
 70
     0
102
RTVSPropertyOp31
 70
     0
102
RTVSPropertyOp32
 70
     0
102
RTVSPropertyOp33
 70
     0
102
RTVSPropertyOp34
 70
     0
102
RTVSPropertyOp35
 70
     0
102
RTVSPropertyOp36
 70
     0
102
RTVSPropertyOp37
 70
     0
102
RTVSPropertyOp38
 70
     0
102
RTVSPropertyOp39
 70
     0
102
RTVSPropertyOp40
 70
     0
102
RTVSPropertyOp41
 70
     0
102
RTVSPropertyOp42
 70
     0
102
RTVSPropertyOp43
 70
     0
102
RTVSPropertyOp44
 70
     0
102
RTVSPropertyOp45
 70
     0
102
RTVSPropertyOp46
 70
     0
102
RTVSPropertyOp47
 70
     0
102
RTVSPropertyOp48
 70
     0
102
RTVSPropertyOp49
 70
     0
102
RTVSPropertyOp50
 70
     0
102
RTVSPropertyOp51
 70
     0
102
RTVSPropertyOp52
 70
     0
102
RTVSPropertyOp53
 70
     0
102
RTVSPropertyOp54
 70
     0
102
RTVSPropertyOp55
 70
     0
102
RTVSPropertyOp56
 70
     0
102
RTVSPropertyOp57
 70
     0
102
RTVSPost2010Prop28
280
     0
102
RTVSPost2010PropOp28
 70
     0
102
RTVSPost2010Prop29
280
     1
102
RTVSPost2010PropOp29
 70
     0
102
RTVSPost2010Prop30
280
     1
102
RTVSPost2010PropOp30
 70
     0
102
RTVSPost2010Prop31
280
     0
102
RTVSPost2010PropOp31
 70
     0
102
RTVSPost2010Prop32
280
     0
102
RTVSPost2010PropOp32
 70
     0
102
RTVSPost2010Prop33
280
     0
102
RTVSPost2010PropOp33
 70
     0
102
RTVSPost2010Prop34
280
     0
102
RTVSPost2010PropOp34
 70
     0
102
RTVSPost2010Prop35
280
     0
102
RTVSPost2010PropOp35
 70
     0
102
RTVSPost2010Prop36
280
     0
102
RTVSPost2010PropOp36
 70
     0
102
RTVSPost2010Prop37
 90
       50
102
RTVSPost2010PropOp37
 70
     0
102
RTVSPost2010Prop38
140
0.0
102
RTVSPost2010PropOp38
 70
     0
102
RTVSPost2010Prop39
140
1.0
102
RTVSPost2010PropOp39
 70
     0
102
RTVSPost2010Prop40
 90
        0
102
RTVSPost2010PropOp40
 70
     0
102
RTVSPost2010Prop41ColorIndex
 90
       18
102
RTVSPost2010Prop41ColorRGB
 90
        0
102
RTVSPost2010PropOp41
 70
     0
102
RTVSPost2010Prop42
 90
       50
102
RTVSPost2010PropOp42
 70
     0
102
RTVSPost2010Prop43
 90
        3
102
RTVSPost2010PropOp43
 70
     0
102
RTVSPost2010Prop44ColorIndex
 90
        5
102
RTVSPost2010Prop44ColorRGB
 90
      255
102
RTVSPost2010PropOp44
 70
     0
102
RTVSPost2010Prop45
280
     0
102
RTVSPost2010PropOp45
 70
     0
102
RTVSPost2010Prop46
 90
       50
102
RTVSPost2010PropOp46
 70
     0
102
RTVSPost2010Prop47
 90
       50
102
RTVSPost2010PropOp47
 70
     0
102
RTVSPost2010Prop48
 90
       50
102
RTVSPost2010PropOp48
 70
     0
102
RTVSPost2010Prop49
280
     0
102
RTVSPost2010PropOp49
 70
     0
102
RTVSPost2010Prop50
 90
       50
102
RTVSPost2010PropOp50
 70
     0
102
RTVSPost2010Prop51ColorIndex
 90
      256
102
RTVSPost2010Prop51ColorRGB
 90
-16777216
102
RTVSPost2010PropOp51
 70
     0
102
RTVSPost2010Prop52
140
1.0
102
RTVSPost2010PropOp52
 70
     0
102
RTVSPost2010Prop53
 90
        2
102
RTVSPost2010PropOp53
 70
     0
102
RTVSPost2010Prop54
  1
strokes_ogs.tif
102
RTVSPost2010PropOp54
 70
     0
102
RTVSPost2010Prop55
280
     0
102
RTVSPost2010PropOp55
 70
     0
102
RTVSPost2010Prop56
140
1.0
102
RTVSPost2010PropOp56
 70
     0
102
RTVSPost2010Prop57
140
1.0
102
RTVSPost2010PropOp57
 70
     0
  0
XRECORD
  5
A2
102
{ACAD_REACTORS
330
A1
102
}
330
A1
100
AcDbXrecord
280
     1
102
RTVSPropertyOp0
 70
     1
102
RTVSPropertyOp1
 70
     1
102
RTVSPropertyOp2
 70
     1
102
RTVSPropertyOp3
 70
     1
102
RTVSPropertyOp4
 70
     1
102
RTVSPropertyOp5
 70
     1
102
RTVSPropertyOp6
 70
     1
102
RTVSPropertyOp7
 70
     1
102
RTVSPropertyOp8
 70
     1
102
RTVSPropertyOp9
 70
     1
102
RTVSPropertyOp10
 70
     1
102
RTVSPropertyOp11
 70
     1
102
RTVSPropertyOp12
 70
     1
102
RTVSPropertyOp13
 70
     1
102
RTVSPropertyOp14
 70
     1
102
RTVSPropertyOp15
 70
     1
102
RTVSPropertyOp16
 70
     1
102
RTVSPropertyOp17
 70
     1
102
RTVSPropertyOp18
 70
     1
102
RTVSPropertyOp19
 70
     1
102
RTVSPropertyOp20
 70
     1
102
RTVSPropertyOp21
 70
     1
102
RTVSPropertyOp22
 70
     1
102
RTVSPropertyOp23
 70
     1
102
RTVSPropertyOp24
 70
     1
102
RTVSPropertyOp25
 70
     1
102
RTVSPropertyOp26
 70
     1
102
RTVSPropertyOp27
 70
     1
102
RTVSPropertyOp28
 70
     1
102
RTVSPropertyOp29
 70
     1
102
RTVSPropertyOp30
 70
     1
102
RTVSPropertyOp31
 70
     1
102
RTVSPropertyOp32
 70
     1
102
RTVSPropertyOp33
 70
     1
102
RTVSPropertyOp34
 70
     1
102
RTVSPropertyOp35
 70
     1
102
RTVSPropertyOp36
 70
     1
102
RTVSPropertyOp37
 70
     1
102
RTVSPropertyOp38
 70
     1
102
RTVSPropertyOp39
 70
     1
102
RTVSPropertyOp40
 70
     1
102
RTVSPropertyOp41
 70
     1
102
RTVSPropertyOp42
 70
     1
102
RTVSPropertyOp43
 70
     1
102
RTVSPropertyOp44
 70
     1
102
RTVSPropertyOp45
 70
     1
102
RTVSPropertyOp46
 70
     1
102
RTVSPropertyOp47
 70
     1
102
RTVSPropertyOp48
 70
     1
102
RTVSPropertyOp49
 70
     1
102
RTVSPropertyOp50
 70
     1
102
RTVSPropertyOp51
 70
     0
102
RTVSPropertyOp52
 70
     0
102
RTVSPropertyOp53
 70
     1
102
RTVSPropertyOp54
 70
     1
102
RTVSPropertyOp55
 70
     1
102
RTVSPropertyOp56
 70
     1
102
RTVSPropertyOp57
 70
     1
102
RTVSPost2010Prop28
280
     0
102
RTVSPost2010PropOp28
 70
     1
102
RTVSPost2010Prop29
280
     1
102
RTVSPost2010PropOp29
 70
     1
102
RTVSPost2010Prop30
280
     1
102
RTVSPost2010PropOp30
 70
     1
102
RTVSPost2010Prop31
280
     0
102
RTVSPost2010PropOp31
 70
     1
102
RTVSPost2010Prop32
280
     0
102
RTVSPost2010PropOp32
 70
     1
102
RTVSPost2010Prop33
280
     0
102
RTVSPost2010PropOp33
 70
     1
102
RTVSPost2010Prop34
280
     0
102
RTVSPost2010PropOp34
 70
     1
102
RTVSPost2010Prop35
280
     0
102
RTVSPost2010PropOp35
 70
     1
102
RTVSPost2010Prop36
280
     0
102
RTVSPost2010PropOp36
 70
     1
102
RTVSPost2010Prop37
 90
       50
102
RTVSPost2010PropOp37
 70
     1
102
RTVSPost2010Prop38
140
0.0
102
RTVSPost2010PropOp38
 70
     1
102
RTVSPost2010Prop39
140
1.0
102
RTVSPost2010PropOp39
 70
     1
102
RTVSPost2010Prop40
 90
        0
102
RTVSPost2010PropOp40
 70
     1
102
RTVSPost2010Prop41ColorIndex
 90
       18
102
RTVSPost2010Prop41ColorRGB
 90
        0
102
RTVSPost2010PropOp41
 70
     1
102
RTVSPost2010Prop42
 90
       50
102
RTVSPost2010PropOp42
 70
     1
102
RTVSPost2010Prop43
 90
        3
102
RTVSPost2010PropOp43
 70
     1
102
RTVSPost2010Prop44ColorIndex
 90
        5
102
RTVSPost2010Prop44ColorRGB
 90
      255
102
RTVSPost2010PropOp44
 70
     1
102
RTVSPost2010Prop45
280
     0
102
RTVSPost2010PropOp45
 70
     1
102
RTVSPost2010Prop46
 90
       50
102
RTVSPost2010PropOp46
 70
     1
102
RTVSPost2010Prop47
 90
       50
102
RTVSPost2010PropOp47
 70
     1
102
RTVSPost2010Prop48
 90
       50
102
RTVSPost2010PropOp48
 70
     1
102
RTVSPost2010Prop49
280
     0
102
RTVSPost2010PropOp49
 70
     1
102
RTVSPost2010Prop50
 90
       50
102
RTVSPost2010PropOp50
 70
     1
102
RTVSPost2010Prop51ColorIndex
 90
      256
102
RTVSPost2010Prop51ColorRGB
 90
-16777216
102
RTVSPost2010PropOp51
 70
     0
102
RTVSPost2010Prop52
140
1.0
102
RTVSPost2010PropOp52
 70
     0
102
RTVSPost2010Prop53
 90
        2
102
RTVSPost2010PropOp53
 70
     1
102
RTVSPost2010Prop54
  1
strokes_ogs.tif
102
RTVSPost2010PropOp54
 70
     1
102
RTVSPost2010Prop55
280
     0
102
RTVSPost2010PropOp55
 70
     1
102
RTVSPost2010Prop56
140
1.0
102
RTVSPost2010PropOp56
 70
     1
102
RTVSPost2010Prop57
140
1.0
102
RTVSPost2010PropOp57
 70
     1
  0
XRECORD
  5
86
102
{ACAD_REACTORS
330
85
102
}
330
85
100
AcDbXrecord
280
     1
102
RTVSPropertyOp0
 70
     1
102
RTVSPropertyOp1
 70
     1
102
RTVSPropertyOp2
 70
     1
102
RTVSPropertyOp3
 70
     1
102
RTVSPropertyOp4
 70
     1
102
RTVSPropertyOp5
 70
     1
102
RTVSPropertyOp6
 70
     1
102
RTVSPropertyOp7
 70
     1
102
RTVSPropertyOp8
 70
     1
102
RTVSPropertyOp9
 70
     1
102
RTVSPropertyOp10
 70
     1
102
RTVSPropertyOp11
 70
     1
102
RTVSPropertyOp12
 70
     1
102
RTVSPropertyOp13
 70
     1
102
RTVSPropertyOp14
 70
     1
102
RTVSPropertyOp15
 70
     1
102
RTVSPropertyOp16
 70
     1
102
RTVSPropertyOp17
 70
     1
102
RTVSPropertyOp18
 70
     1
102
RTVSPropertyOp19
 70
     1
102
RTVSPropertyOp20
 70
     1
102
RTVSPropertyOp21
 70
     1
102
RTVSPropertyOp22
 70
     1
102
RTVSPropertyOp23
 70
     1
102
RTVSPropertyOp24
 70
     1
102
RTVSPropertyOp25
 70
     1
102
RTVSPropertyOp26
 70
     1
102
RTVSPropertyOp27
 70
     1
102
RTVSPropertyOp28
 70
     1
102
RTVSPropertyOp29
 70
     1
102
RTVSPropertyOp30
 70
     1
102
RTVSPropertyOp31
 70
     1
102
RTVSPropertyOp32
 70
     1
102
RTVSPropertyOp33
 70
     1
102
RTVSPropertyOp34
 70
     1
102
RTVSPropertyOp35
 70
     1
102
RTVSPropertyOp36
 70
     1
102
RTVSPropertyOp37
 70
     1
102
RTVSPropertyOp38
 70
     1
102
RTVSPropertyOp39
 70
     1
102
RTVSPropertyOp40
 70
     1
102
RTVSPropertyOp41
 70
     1
102
RTVSPropertyOp42
 70
     1
102
RTVSPropertyOp43
 70
     1
102
RTVSPropertyOp44
 70
     1
102
RTVSPropertyOp45
 70
     1
102
RTVSPropertyOp46
 70
     1
102
RTVSPropertyOp47
 70
     1
102
RTVSPropertyOp48
 70
     1
102
RTVSPropertyOp49
 70
     1
102
RTVSPropertyOp50
 70
     1
102
RTVSPropertyOp51
 70
     0
102
RTVSPropertyOp52
 70
     0
102
RTVSPropertyOp53
 70
     1
102
RTVSPropertyOp54
 70
     1
102
RTVSPropertyOp55
 70
     1
102
RTVSPropertyOp56
 70
     1
102
RTVSPropertyOp57
 70
     1
102
RTVSPost2010Prop28
280
     0
102
RTVSPost2010PropOp28
 70
     1
102
RTVSPost2010Prop29
280
     1
102
RTVSPost2010PropOp29
 70
     1
102
RTVSPost2010Prop30
280
     1
102
RTVSPost2010PropOp30
 70
     1
102
RTVSPost2010Prop31
280
     0
102
RTVSPost2010PropOp31
 70
     1
102
RTVSPost2010Prop32
280
     0
102
RTVSPost2010PropOp32
 70
     1
102
RTVSPost2010Prop33
280
     0
102
RTVSPost2010PropOp33
 70
     1
102
RTVSPost2010Prop34
280
     0
102
RTVSPost2010PropOp34
 70
     1
102
RTVSPost2010Prop35
280
     0
102
RTVSPost2010PropOp35
 70
     1
102
RTVSPost2010Prop36
280
     0
102
RTVSPost2010PropOp36
 70
     1
102
RTVSPost2010Prop37
 90
       50
102
RTVSPost2010PropOp37
 70
     1
102
RTVSPost2010Prop38
140
0.0
102
RTVSPost2010PropOp38
 70
     1
102
RTVSPost2010Prop39
140
1.0
102
RTVSPost2010PropOp39
 70
     1
102
RTVSPost2010Prop40
 90
        0
102
RTVSPost2010PropOp40
 70
     1
102
RTVSPost2010Prop41ColorIndex
 90
       18
102
RTVSPost2010Prop41ColorRGB
 90
        0
102
RTVSPost2010PropOp41
 70
     1
102
RTVSPost2010Prop42
 90
       50
102
RTVSPost2010PropOp42
 70
     1
102
RTVSPost2010Prop43
 90
        3
102
RTVSPost2010PropOp43
 70
     1
102
RTVSPost2010Prop44ColorIndex
 90
        5
102
RTVSPost2010Prop44ColorRGB
 90
      255
102
RTVSPost2010PropOp44
 70
     1
102
RTVSPost2010Prop45
280
     0
102
RTVSPost2010PropOp45
 70
     1
102
RTVSPost2010Prop46
 90
       50
102
RTVSPost2010PropOp46
 70
     1
102
RTVSPost2010Prop47
 90
       50
102
RTVSPost2010PropOp47
 70
     1
102
RTVSPost2010Prop48
 90
       50
102
RTVSPost2010PropOp48
 70
     1
102
RTVSPost2010Prop49
280
     0
102
RTVSPost2010PropOp49
 70
     1
102
RTVSPost2010Prop50
 90
       50
102
RTVSPost2010PropOp50
 70
     1
102
RTVSPost2010Prop51ColorIndex
 90
      256
102
RTVSPost2010Prop51ColorRGB
 90
-16777216
102
RTVSPost2010PropOp51
 70
     0
102
RTVSPost2010Prop52
140
1.0
102
RTVSPost2010PropOp52
 70
     0
102
RTVSPost2010Prop53
 90
        2
102
RTVSPost2010PropOp53
 70
     1
102
RTVSPost2010Prop54
  1
strokes_ogs.tif
102
RTVSPost2010PropOp54
 70
     1
102
RTVSPost2010Prop55
280
     0
102
RTVSPost2010PropOp55
 70
     1
102
RTVSPost2010Prop56
140
1.0
102
RTVSPost2010PropOp56
 70
     1
102
RTVSPost2010Prop57
140
1.0
102
RTVSPost2010PropOp57
 70
     1
  0
XRECORD
  5
88
102
{ACAD_REACTORS
330
87
102
}
330
87
100
AcDbXrecord
280
     1
102
RTVSPropertyOp0
 70
     1
102
RTVSPropertyOp1
 70
     1
102
RTVSPropertyOp2
 70
     1
102
RTVSPropertyOp3
 70
     1
102
RTVSPropertyOp4
 70
     1
102
RTVSPropertyOp5
 70
     1
102
RTVSPropertyOp6
 70
     1
102
RTVSPropertyOp7
 70
     1
102
RTVSPropertyOp8
 70
     1
102
RTVSPropertyOp9
 70
     1
102
RTVSPropertyOp10
 70
     1
102
RTVSPropertyOp11
 70
     1
102
RTVSPropertyOp12
 70
     1
102
RTVSPropertyOp13
 70
     1
102
RTVSPropertyOp14
 70
     1
102
RTVSPropertyOp15
 70
     1
102
RTVSPropertyOp16
 70
     1
102
RTVSPropertyOp17
 70
     1
102
RTVSPropertyOp18
 70
     1
102
RTVSPropertyOp19
 70
     1
102
RTVSPropertyOp20
 70
     1
102
RTVSPropertyOp21
 70
     1
102
RTVSPropertyOp22
 70
     1
102
RTVSPropertyOp23
 70
     1
102
RTVSPropertyOp24
 70
     1
102
RTVSPropertyOp25
 70
     1
102
RTVSPropertyOp26
 70
     1
102
RTVSPropertyOp27
 70
     1
102
RTVSPropertyOp28
 70
     1
102
RTVSPropertyOp29
 70
     1
102
RTVSPropertyOp30
 70
     1
102
RTVSPropertyOp31
 70
     1
102
RTVSPropertyOp32
 70
     1
102
RTVSPropertyOp33
 70
     1
102
RTVSPropertyOp34
 70
     1
102
RTVSPropertyOp35
 70
     1
102
RTVSPropertyOp36
 70
     1
102
RTVSPropertyOp37
 70
     1
102
RTVSPropertyOp38
 70
     1
102
RTVSPropertyOp39
 70
     1
102
RTVSPropertyOp40
 70
     1
102
RTVSPropertyOp41
 70
     1
102
RTVSPropertyOp42
 70
     1
102
RTVSPropertyOp43
 70
     1
102
RTVSPropertyOp44
 70
     1
102
RTVSPropertyOp45
 70
     1
102
RTVSPropertyOp46
 70
     1
102
RTVSPropertyOp47
 70
     1
102
RTVSPropertyOp48
 70
     1
102
RTVSPropertyOp49
 70
     1
102
RTVSPropertyOp50
 70
     1
102
RTVSPropertyOp51
 70
     0
102
RTVSPropertyOp52
 70
     0
102
RTVSPropertyOp53
 70
     1
102
RTVSPropertyOp54
 70
     1
102
RTVSPropertyOp55
 70
     1
102
RTVSPropertyOp56
 70
     1
102
RTVSPropertyOp57
 70
     1
102
RTVSPost2010Prop28
280
     0
102
RTVSPost2010PropOp28
 70
     1
102
RTVSPost2010Prop29
280
     1
102
RTVSPost2010PropOp29
 70
     1
102
RTVSPost2010Prop30
280
     1
102
RTVSPost2010PropOp30
 70
     1
102
RTVSPost2010Prop31
280
     0
102
RTVSPost2010PropOp31
 70
     1
102
RTVSPost2010Prop32
280
     0
102
RTVSPost2010PropOp32
 70
     1
102
RTVSPost2010Prop33
280
     0
102
RTVSPost2010PropOp33
 70
     1
102
RTVSPost2010Prop34
280
     0
102
RTVSPost2010PropOp34
 70
     1
102
RTVSPost2010Prop35
280
     0
102
RTVSPost2010PropOp35
 70
     1
102
RTVSPost2010Prop36
280
     0
102
RTVSPost2010PropOp36
 70
     1
102
RTVSPost2010Prop37
 90
       50
102
RTVSPost2010PropOp37
 70
     1
102
RTVSPost2010Prop38
140
0.0
102
RTVSPost2010PropOp38
 70
     1
102
RTVSPost2010Prop39
140
1.0
102
RTVSPost2010PropOp39
 70
     1
102
RTVSPost2010Prop40
 90
        0
102
RTVSPost2010PropOp40
 70
     1
102
RTVSPost2010Prop41ColorIndex
 90
       18
102
RTVSPost2010Prop41ColorRGB
 90
        0
102
RTVSPost2010PropOp41
 70
     1
102
RTVSPost2010Prop42
 90
       50
102
RTVSPost2010PropOp42
 70
     1
102
RTVSPost2010Prop43
 90
        3
102
RTVSPost2010PropOp43
 70
     1
102
RTVSPost2010Prop44ColorIndex
 90
        5
102
RTVSPost2010Prop44ColorRGB
 90
      255
102
RTVSPost2010PropOp44
 70
     1
102
RTVSPost2010Prop45
280
     0
102
RTVSPost2010PropOp45
 70
     1
102
RTVSPost2010Prop46
 90
       50
102
RTVSPost2010PropOp46
 70
     1
102
RTVSPost2010Prop47
 90
       50
102
RTVSPost2010PropOp47
 70
     1
102
RTVSPost2010Prop48
 90
       50
102
RTVSPost2010PropOp48
 70
     1
102
RTVSPost2010Prop49
280
     0
102
RTVSPost2010PropOp49
 70
     1
102
RTVSPost2010Prop50
 90
       50
102
RTVSPost2010PropOp50
 70
     1
102
RTVSPost2010Prop51ColorIndex
 90
      256
102
RTVSPost2010Prop51ColorRGB
 90
-16777216
102
RTVSPost2010PropOp51
 70
     0
102
RTVSPost2010Prop52
140
1.0
102
RTVSPost2010PropOp52
 70
     0
102
RTVSPost2010Prop53
 90
        2
102
RTVSPost2010PropOp53
 70
     1
102
RTVSPost2010Prop54
  1
strokes_ogs.tif
102
RTVSPost2010PropOp54
 70
     1
102
RTVSPost2010Prop55
280
     0
102
RTVSPost2010PropOp55
 70
     1
102
RTVSPost2010Prop56
140
1.0
102
RTVSPost2010PropOp56
 70
     1
102
RTVSPost2010Prop57
140
1.0
102
RTVSPost2010PropOp57
 70
     1
  0
XRECORD
  5
8A
102
{ACAD_REACTORS
330
89
102
}
330
89
100
AcDbXrecord
280
     1
102
RTVSPropertyOp0
 70
     1
102
RTVSPropertyOp1
 70
     1
102
RTVSPropertyOp2
 70
     1
102
RTVSPropertyOp3
 70
     1
102
RTVSPropertyOp4
 70
     1
102
RTVSPropertyOp5
 70
     1
102
RTVSPropertyOp6
 70
     1
102
RTVSPropertyOp7
 70
     1
102
RTVSPropertyOp8
 70
     1
102
RTVSPropertyOp9
 70
     1
102
RTVSPropertyOp10
 70
     1
102
RTVSPropertyOp11
 70
     1
102
RTVSPropertyOp12
 70
     1
102
RTVSPropertyOp13
 70
     1
102
RTVSPropertyOp14
 70
     1
102
RTVSPropertyOp15
 70
     1
102
RTVSPropertyOp16
 70
     1
102
RTVSPropertyOp17
 70
     1
102
RTVSPropertyOp18
 70
     1
102
RTVSPropertyOp19
 70
     1
102
RTVSPropertyOp20
 70
     1
102
RTVSPropertyOp21
 70
     1
102
RTVSPropertyOp22
 70
     1
102
RTVSPropertyOp23
 70
     1
102
RTVSPropertyOp24
 70
     1
102
RTVSPropertyOp25
 70
     1
102
RTVSPropertyOp26
 70
     1
102
RTVSPropertyOp27
 70
     1
102
RTVSPropertyOp28
 70
     1
102
RTVSPropertyOp29
 70
     1
102
RTVSPropertyOp30
 70
     1
102
RTVSPropertyOp31
 70
     1
102
RTVSPropertyOp32
 70
     1
102
RTVSPropertyOp33
 70
     1
102
RTVSPropertyOp34
 70
     1
102
RTVSPropertyOp35
 70
     1
102
RTVSPropertyOp36
 70
     1
102
RTVSPropertyOp37
 70
     1
102
RTVSPropertyOp38
 70
     1
102
RTVSPropertyOp39
 70
     1
102
RTVSPropertyOp40
 70
     1
102
RTVSPropertyOp41
 70
     1
102
RTVSPropertyOp42
 70
     1
102
RTVSPropertyOp43
 70
     1
102
RTVSPropertyOp44
 70
     1
102
RTVSPropertyOp45
 70
     1
102
RTVSPropertyOp46
 70
     1
102
RTVSPropertyOp47
 70
     1
102
RTVSPropertyOp48
 70
     1
102
RTVSPropertyOp49
 70
     1
102
RTVSPropertyOp50
 70
     1
102
RTVSPropertyOp51
 70
     0
102
RTVSPropertyOp52
 70
     0
102
RTVSPropertyOp53
 70
     1
102
RTVSPropertyOp54
 70
     1
102
RTVSPropertyOp55
 70
     1
102
RTVSPropertyOp56
 70
     1
102
RTVSPropertyOp57
 70
     1
102
RTVSPost2010Prop28
280
     0
102
RTVSPost2010PropOp28
 70
     1
102
RTVSPost2010Prop29
280
     1
102
RTVSPost2010PropOp29
 70
     1
102
RTVSPost2010Prop30
280
     1
102
RTVSPost2010PropOp30
 70
     1
102
RTVSPost2010Prop31
280
     0
102
RTVSPost2010PropOp31
 70
     1
102
RTVSPost2010Prop32
280
     0
102
RTVSPost2010PropOp32
 70
     1
102
RTVSPost2010Prop33
280
     0
102
RTVSPost2010PropOp33
 70
     1
102
RTVSPost2010Prop34
280
     0
102
RTVSPost2010PropOp34
 70
     1
102
RTVSPost2010Prop35
280
     0
102
RTVSPost2010PropOp35
 70
     1
102
RTVSPost2010Prop36
280
     0
102
RTVSPost2010PropOp36
 70
     1
102
RTVSPost2010Prop37
 90
       50
102
RTVSPost2010PropOp37
 70
     1
102
RTVSPost2010Prop38
140
0.0
102
RTVSPost2010PropOp38
 70
     1
102
RTVSPost2010Prop39
140
1.0
102
RTVSPost2010PropOp39
 70
     1
102
RTVSPost2010Prop40
 90
        0
102
RTVSPost2010PropOp40
 70
     1
102
RTVSPost2010Prop41ColorIndex
 90
       18
102
RTVSPost2010Prop41ColorRGB
 90
        0
102
RTVSPost2010PropOp41
 70
     1
102
RTVSPost2010Prop42
 90
       50
102
RTVSPost2010PropOp42
 70
     1
102
RTVSPost2010Prop43
 90
        3
102
RTVSPost2010PropOp43
 70
     1
102
RTVSPost2010Prop44ColorIndex
 90
        5
102
RTVSPost2010Prop44ColorRGB
 90
      255
102
RTVSPost2010PropOp44
 70
     1
102
RTVSPost2010Prop45
280
     0
102
RTVSPost2010PropOp45
 70
     1
102
RTVSPost2010Prop46
 90
       50
102
RTVSPost2010PropOp46
 70
     1
102
RTVSPost2010Prop47
 90
       50
102
RTVSPost2010PropOp47
 70
     1
102
RTVSPost2010Prop48
 90
       50
102
RTVSPost2010PropOp48
 70
     1
102
RTVSPost2010Prop49
280
     0
102
RTVSPost2010PropOp49
 70
     1
102
RTVSPost2010Prop50
 90
       50
102
RTVSPost2010PropOp50
 70
     1
102
RTVSPost2010Prop51ColorIndex
 90
      256
102
RTVSPost2010Prop51ColorRGB
 90
-16777216
102
RTVSPost2010PropOp51
 70
     0
102
RTVSPost2010Prop52
140
1.0
102
RTVSPost2010PropOp52
 70
     0
102
RTVSPost2010Prop53
 90
        2
102
RTVSPost2010PropOp53
 70
     1
102
RTVSPost2010Prop54
  1
strokes_ogs.tif
102
RTVSPost2010PropOp54
 70
     1
102
RTVSPost2010Prop55
280
     0
102
RTVSPost2010PropOp55
 70
     1
102
RTVSPost2010Prop56
140
1.0
102
RTVSPost2010PropOp56
 70
     1
102
RTVSPost2010Prop57
140
1.0
102
RTVSPost2010PropOp57
 70
     1
  0
XRECORD
  5
8C
102
{ACAD_REACTORS
330
8B
102
}
330
8B
100
AcDbXrecord
280
     1
102
RTVSPropertyOp0
 70
     1
102
RTVSPropertyOp1
 70
     1
102
RTVSPropertyOp2
 70
     1
102
RTVSPropertyOp3
 70
     1
102
RTVSPropertyOp4
 70
     1
102
RTVSPropertyOp5
 70
     1
102
RTVSPropertyOp6
 70
     1
102
RTVSPropertyOp7
 70
     1
102
RTVSPropertyOp8
 70
     1
102
RTVSPropertyOp9
 70
     1
102
RTVSPropertyOp10
 70
     1
102
RTVSPropertyOp11
 70
     1
102
RTVSPropertyOp12
 70
     1
102
RTVSPropertyOp13
 70
     1
102
RTVSPropertyOp14
 70
     1
102
RTVSPropertyOp15
 70
     1
102
RTVSPropertyOp16
 70
     1
102
RTVSPropertyOp17
 70
     1
102
RTVSPropertyOp18
 70
     1
102
RTVSPropertyOp19
 70
     1
102
RTVSPropertyOp20
 70
     1
102
RTVSPropertyOp21
 70
     1
102
RTVSPropertyOp22
 70
     1
102
RTVSPropertyOp23
 70
     1
102
RTVSPropertyOp24
 70
     1
102
RTVSPropertyOp25
 70
     1
102
RTVSPropertyOp26
 70
     1
102
RTVSPropertyOp27
 70
     1
102
RTVSPropertyOp28
 70
     1
102
RTVSPropertyOp29
 70
     1
102
RTVSPropertyOp30
 70
     1
102
RTVSPropertyOp31
 70
     1
102
RTVSPropertyOp32
 70
     1
102
RTVSPropertyOp33
 70
     1
102
RTVSPropertyOp34
 70
     1
102
RTVSPropertyOp35
 70
     1
102
RTVSPropertyOp36
 70
     1
102
RTVSPropertyOp37
 70
     1
102
RTVSPropertyOp38
 70
     1
102
RTVSPropertyOp39
 70
     1
102
RTVSPropertyOp40
 70
     1
102
RTVSPropertyOp41
 70
     1
102
RTVSPropertyOp42
 70
     1
102
RTVSPropertyOp43
 70
     1
102
RTVSPropertyOp44
 70
     1
102
RTVSPropertyOp45
 70
     1
102
RTVSPropertyOp46
 70
     1
102
RTVSPropertyOp47
 70
     1
102
RTVSPropertyOp48
 70
     1
102
RTVSPropertyOp49
 70
     1
102
RTVSPropertyOp50
 70
     1
102
RTVSPropertyOp51
 70
     0
102
RTVSPropertyOp52
 70
     0
102
RTVSPropertyOp53
 70
     1
102
RTVSPropertyOp54
 70
     1
102
RTVSPropertyOp55
 70
     1
102
RTVSPropertyOp56
 70
     1
102
RTVSPropertyOp57
 70
     1
102
RTVSPost2010Prop28
280
     0
102
RTVSPost2010PropOp28
 70
     1
102
RTVSPost2010Prop29
280
     1
102
RTVSPost2010PropOp29
 70
     1
102
RTVSPost2010Prop30
280
     1
102
RTVSPost2010PropOp30
 70
     1
102
RTVSPost2010Prop31
280
     0
102
RTVSPost2010PropOp31
 70
     1
102
RTVSPost2010Prop32
280
     0
102
RTVSPost2010PropOp32
 70
     1
102
RTVSPost2010Prop33
280
     0
102
RTVSPost2010PropOp33
 70
     1
102
RTVSPost2010Prop34
280
     0
102
RTVSPost2010PropOp34
 70
     1
102
RTVSPost2010Prop35
280
     0
102
RTVSPost2010PropOp35
 70
     1
102
RTVSPost2010Prop36
280
     0
102
RTVSPost2010PropOp36
 70
     1
102
RTVSPost2010Prop37
 90
       50
102
RTVSPost2010PropOp37
 70
     1
102
RTVSPost2010Prop38
140
0.0
102
RTVSPost2010PropOp38
 70
     1
102
RTVSPost2010Prop39
140
1.0
102
RTVSPost2010PropOp39
 70
     1
102
RTVSPost2010Prop40
 90
        0
102
RTVSPost2010PropOp40
 70
     1
102
RTVSPost2010Prop41ColorIndex
 90
       18
102
RTVSPost2010Prop41ColorRGB
 90
        0
102
RTVSPost2010PropOp41
 70
     1
102
RTVSPost2010Prop42
 90
       50
102
RTVSPost2010PropOp42
 70
     1
102
RTVSPost2010Prop43
 90
        3
102
RTVSPost2010PropOp43
 70
     1
102
RTVSPost2010Prop44ColorIndex
 90
        5
102
RTVSPost2010Prop44ColorRGB
 90
      255
102
RTVSPost2010PropOp44
 70
     1
102
RTVSPost2010Prop45
280
     0
102
RTVSPost2010PropOp45
 70
     1
102
RTVSPost2010Prop46
 90
       50
102
RTVSPost2010PropOp46
 70
     1
102
RTVSPost2010Prop47
 90
       50
102
RTVSPost2010PropOp47
 70
     1
102
RTVSPost2010Prop48
 90
       50
102
RTVSPost2010PropOp48
 70
     1
102
RTVSPost2010Prop49
280
     0
102
RTVSPost2010PropOp49
 70
     1
102
RTVSPost2010Prop50
 90
       50
102
RTVSPost2010PropOp50
 70
     1
102
RTVSPost2010Prop51ColorIndex
 90
      256
102
RTVSPost2010Prop51ColorRGB
 90
-16777216
102
RTVSPost2010PropOp51
 70
     0
102
RTVSPost2010Prop52
140
1.0
102
RTVSPost2010PropOp52
 70
     0
102
RTVSPost2010Prop53
 90
        2
102
RTVSPost2010PropOp53
 70
     1
102
RTVSPost2010Prop54
  1
strokes_ogs.tif
102
RTVSPost2010PropOp54
 70
     1
102
RTVSPost2010Prop55
280
     0
102
RTVSPost2010PropOp55
 70
     1
102
RTVSPost2010Prop56
140
1.0
102
RTVSPost2010PropOp56
 70
     1
102
RTVSPost2010Prop57
140
1.0
102
RTVSPost2010PropOp57
 70
     1
  0
XRECORD
  5
92
102
{ACAD_REACTORS
330
91
102
}
330
91
100
AcDbXrecord
280
     1
102
RTVSPropertyOp0
 70
     1
102
RTVSPropertyOp1
 70
     1
102
RTVSPropertyOp2
 70
     1
102
RTVSPropertyOp3
 70
     1
102
RTVSPropertyOp4
 70
     1
102
RTVSPropertyOp5
 70
     1
102
RTVSPropertyOp6
 70
     1
102
RTVSPropertyOp7
 70
     1
102
RTVSPropertyOp8
 70
     1
102
RTVSPropertyOp9
 70
     1
102
RTVSPropertyOp10
 70
     1
102
RTVSPropertyOp11
 70
     1
102
RTVSPropertyOp12
 70
     1
102
RTVSPropertyOp13
 70
     1
102
RTVSPropertyOp14
 70
     1
102
RTVSPropertyOp15
 70
     1
102
RTVSPropertyOp16
 70
     1
102
RTVSPropertyOp17
 70
     1
102
RTVSPropertyOp18
 70
     1
102
RTVSPropertyOp19
 70
     1
102
RTVSPropertyOp20
 70
     1
102
RTVSPropertyOp21
 70
     1
102
RTVSPropertyOp22
 70
     1
102
RTVSPropertyOp23
 70
     1
102
RTVSPropertyOp24
 70
     1
102
RTVSPropertyOp25
 70
     1
102
RTVSPropertyOp26
 70
     1
102
RTVSPropertyOp27
 70
     1
102
RTVSPropertyOp28
 70
     1
102
RTVSPropertyOp29
 70
     1
102
RTVSPropertyOp30
 70
     1
102
RTVSPropertyOp31
 70
     1
102
RTVSPropertyOp32
 70
     1
102
RTVSPropertyOp33
 70
     1
102
RTVSPropertyOp34
 70
     1
102
RTVSPropertyOp35
 70
     1
102
RTVSPropertyOp36
 70
     1
102
RTVSPropertyOp37
 70
     1
102
RTVSPropertyOp38
 70
     1
102
RTVSPropertyOp39
 70
     1
102
RTVSPropertyOp40
 70
     1
102
RTVSPropertyOp41
 70
     1
102
RTVSPropertyOp42
 70
     1
102
RTVSPropertyOp43
 70
     1
102
RTVSPropertyOp44
 70
     1
102
RTVSPropertyOp45
 70
     1
102
RTVSPropertyOp46
 70
     1
102
RTVSPropertyOp47
 70
     1
102
RTVSPropertyOp48
 70
     1
102
RTVSPropertyOp49
 70
     1
102
RTVSPropertyOp50
 70
     1
102
RTVSPropertyOp51
 70
     0
102
RTVSPropertyOp52
 70
     0
102
RTVSPropertyOp53
 70
     1
102
RTVSPropertyOp54
 70
     1
102
RTVSPropertyOp55
 70
     1
102
RTVSPropertyOp56
 70
     1
102
RTVSPropertyOp57
 70
     1
102
RTVSPost2010Prop28
280
     0
102
RTVSPost2010PropOp28
 70
     1
102
RTVSPost2010Prop29
280
     1
102
RTVSPost2010PropOp29
 70
     1
102
RTVSPost2010Prop30
280
     1
102
RTVSPost2010PropOp30
 70
     1
102
RTVSPost2010Prop31
280
     0
102
RTVSPost2010PropOp31
 70
     1
102
RTVSPost2010Prop32
280
     0
102
RTVSPost2010PropOp32
 70
     1
102
RTVSPost2010Prop33
280
     0
102
RTVSPost2010PropOp33
 70
     1
102
RTVSPost2010Prop34
280
     0
102
RTVSPost2010PropOp34
 70
     1
102
RTVSPost2010Prop35
280
     0
102
RTVSPost2010PropOp35
 70
     1
102
RTVSPost2010Prop36
280
     0
102
RTVSPost2010PropOp36
 70
     1
102
RTVSPost2010Prop37
 90
       50
102
RTVSPost2010PropOp37
 70
     1
102
RTVSPost2010Prop38
140
0.0
102
RTVSPost2010PropOp38
 70
     1
102
RTVSPost2010Prop39
140
1.0
102
RTVSPost2010PropOp39
 70
     1
102
RTVSPost2010Prop40
 90
        0
102
RTVSPost2010PropOp40
 70
     1
102
RTVSPost2010Prop41ColorIndex
 90
       18
102
RTVSPost2010Prop41ColorRGB
 90
        0
102
RTVSPost2010PropOp41
 70
     1
102
RTVSPost2010Prop42
 90
       50
102
RTVSPost2010PropOp42
 70
     1
102
RTVSPost2010Prop43
 90
        3
102
RTVSPost2010PropOp43
 70
     1
102
RTVSPost2010Prop44ColorIndex
 90
        5
102
RTVSPost2010Prop44ColorRGB
 90
      255
102
RTVSPost2010PropOp44
 70
     1
102
RTVSPost2010Prop45
280
     0
102
RTVSPost2010PropOp45
 70
     1
102
RTVSPost2010Prop46
 90
       50
102
RTVSPost2010PropOp46
 70
     1
102
RTVSPost2010Prop47
 90
       50
102
RTVSPost2010PropOp47
 70
     1
102
RTVSPost2010Prop48
 90
       50
102
RTVSPost2010PropOp48
 70
     1
102
RTVSPost2010Prop49
280
     0
102
RTVSPost2010PropOp49
 70
     1
102
RTVSPost2010Prop50
 90
       50
102
RTVSPost2010PropOp50
 70
     1
102
RTVSPost2010Prop51ColorIndex
 90
      256
102
RTVSPost2010Prop51ColorRGB
 90
-16777216
102
RTVSPost2010PropOp51
 70
     0
102
RTVSPost2010Prop52
140
1.0
102
RTVSPost2010PropOp52
 70
     0
102
RTVSPost2010Prop53
 90
        2
102
RTVSPost2010PropOp53
 70
     1
102
RTVSPost2010Prop54
  1
strokes_ogs.tif
102
RTVSPost2010PropOp54
 70
     1
102
RTVSPost2010Prop55
280
     0
102
RTVSPost2010PropOp55
 70
     1
102
RTVSPost2010Prop56
140
1.0
102
RTVSPost2010PropOp56
 70
     1
102
RTVSPost2010Prop57
140
1.0
102
RTVSPost2010PropOp57
 70
     1
  0
XRECORD
  5
A6
102
{ACAD_REACTORS
330
A5
102
}
330
A5
100
AcDbXrecord
280
     1
102
RTVSPropertyOp0
 70
     0
102
RTVSPropertyOp1
 70
     0
102
RTVSPropertyOp2
 70
     0
102
RTVSPropertyOp3
 70
     0
102
RTVSPropertyOp4
 70
     0
102
RTVSPropertyOp5
 70
     0
102
RTVSPropertyOp6
 70
     0
102
RTVSPropertyOp7
 70
     0
102
RTVSPropertyOp8
 70
     0
102
RTVSPropertyOp9
 70
     0
102
RTVSPropertyOp10
 70
     0
102
RTVSPropertyOp11
 70
     0
102
RTVSPropertyOp12
 70
     0
102
RTVSPropertyOp13
 70
     0
102
RTVSPropertyOp14
 70
     2
102
RTVSPropertyOp15
 70
     0
102
RTVSPropertyOp16
 70
     0
102
RTVSPropertyOp17
 70
     0
102
RTVSPropertyOp18
 70
     0
102
RTVSPropertyOp19
 70
     0
102
RTVSPropertyOp20
 70
     0
102
RTVSPropertyOp21
 70
     0
102
RTVSPropertyOp22
 70
     0
102
RTVSPropertyOp23
 70
     0
102
RTVSPropertyOp24
 70
     0
102
RTVSPropertyOp25
 70
     0
102
RTVSPropertyOp26
 70
     0
102
RTVSPropertyOp27
 70
     0
102
RTVSPropertyOp28
 70
     0
102
RTVSPropertyOp29
 70
     0
102
RTVSPropertyOp30
 70
     0
102
RTVSPropertyOp31
 70
     0
102
RTVSPropertyOp32
 70
     0
102
RTVSPropertyOp33
 70
     0
102
RTVSPropertyOp34
 70
     0
102
RTVSPropertyOp35
 70
     0
102
RTVSPropertyOp36
 70
     0
102
RTVSPropertyOp37
 70
     0
102
RTVSPropertyOp38
 70
     0
102
RTVSPropertyOp39
 70
     0
102
RTVSPropertyOp40
 70
     0
102
RTVSPropertyOp41
 70
     0
102
RTVSPropertyOp42
 70
     0
102
RTVSPropertyOp43
 70
     0
102
RTVSPropertyOp44
 70
     0
102
RTVSPropertyOp45
 70
     0
102
RTVSPropertyOp46
 70
     0
102
RTVSPropertyOp47
 70
     0
102
RTVSPropertyOp48
 70
     0
102
RTVSPropertyOp49
 70
     0
102
RTVSPropertyOp50
 70
     0
102
RTVSPropertyOp51
 70
     0
102
RTVSPropertyOp52
 70
     0
102
RTVSPropertyOp53
 70
     0
102
RTVSPropertyOp54
 70
     0
102
RTVSPropertyOp55
 70
     0
102
RTVSPropertyOp56
 70
     0
102
RTVSPropertyOp57
 70
     0
102
RTVSPost2010Prop28
280
     0
102
RTVSPost2010PropOp28
 70
     0
102
RTVSPost2010Prop29
280
     1
102
RTVSPost2010PropOp29
 70
     0
102
RTVSPost2010Prop30
280
     1
102
RTVSPost2010PropOp30
 70
     0
102
RTVSPost2010Prop31
280
     0
102
RTVSPost2010PropOp31
 70
     0
102
RTVSPost2010Prop32
280
     0
102
RTVSPost2010PropOp32
 70
     0
102
RTVSPost2010Prop33
280
     0
102
RTVSPost2010PropOp33
 70
     0
102
RTVSPost2010Prop34
280
     0
102
RTVSPost2010PropOp34
 70
     0
102
RTVSPost2010Prop35
280
     0
102
RTVSPost2010PropOp35
 70
     0
102
RTVSPost2010Prop36
280
     0
102
RTVSPost2010PropOp36
 70
     0
102
RTVSPost2010Prop37
 90
       50
102
RTVSPost2010PropOp37
 70
     0
102
RTVSPost2010Prop38
140
0.0
102
RTVSPost2010PropOp38
 70
     0
102
RTVSPost2010Prop39
140
1.0
102
RTVSPost2010PropOp39
 70
     0
102
RTVSPost2010Prop40
 90
        0
102
RTVSPost2010PropOp40
 70
     0
102
RTVSPost2010Prop41ColorIndex
 90
       18
102
RTVSPost2010Prop41ColorRGB
 90
        0
102
RTVSPost2010PropOp41
 70
     0
102
RTVSPost2010Prop42
 90
       50
102
RTVSPost2010PropOp42
 70
     0
102
RTVSPost2010Prop43
 90
        3
102
RTVSPost2010PropOp43
 70
     0
102
RTVSPost2010Prop44ColorIndex
 90
        5
102
RTVSPost2010Prop44ColorRGB
 90
      255
102
RTVSPost2010PropOp44
 70
     0
102
RTVSPost2010Prop45
280
     0
102
RTVSPost2010PropOp45
 70
     0
102
RTVSPost2010Prop46
 90
       50
102
RTVSPost2010PropOp46
 70
     0
102
RTVSPost2010Prop47
 90
       50
102
RTVSPost2010PropOp47
 70
     0
102
RTVSPost2010Prop48
 90
       50
102
RTVSPost2010PropOp48
 70
     0
102
RTVSPost2010Prop49
280
     0
102
RTVSPost2010PropOp49
 70
     0
102
RTVSPost2010Prop50
 90
       50
102
RTVSPost2010PropOp50
 70
     0
102
RTVSPost2010Prop51ColorIndex
 90
      256
102
RTVSPost2010Prop51ColorRGB
 90
-16777216
102
RTVSPost2010PropOp51
 70
     0
102
RTVSPost2010Prop52
140
1.0
102
RTVSPost2010PropOp52
 70
     0
102
RTVSPost2010Prop53
 90
        2
102
RTVSPost2010PropOp53
 70
     0
102
RTVSPost2010Prop54
  1
strokes_ogs.tif
102
RTVSPost2010PropOp54
 70
     0
102
RTVSPost2010Prop55
280
     0
102
RTVSPost2010PropOp55
 70
     0
102
RTVSPost2010Prop56
140
1.0
102
RTVSPost2010PropOp56
 70
     0
102
RTVSPost2010Prop57
140
1.0
102
RTVSPost2010PropOp57
 70
     0
  0
XRECORD
  5
A0
102
{ACAD_REACTORS
330
9F
102
}
330
9F
100
AcDbXrecord
280
     1
102
RTVSPropertyOp0
 70
     1
102
RTVSPropertyOp1
 70
     1
102
RTVSPropertyOp2
 70
     1
102
RTVSPropertyOp3
 70
     1
102
RTVSPropertyOp4
 70
     1
102
RTVSPropertyOp5
 70
     1
102
RTVSPropertyOp6
 70
     1
102
RTVSPropertyOp7
 70
     1
102
RTVSPropertyOp8
 70
     1
102
RTVSPropertyOp9
 70
     1
102
RTVSPropertyOp10
 70
     1
102
RTVSPropertyOp11
 70
     1
102
RTVSPropertyOp12
 70
     1
102
RTVSPropertyOp13
 70
     1
102
RTVSPropertyOp14
 70
     1
102
RTVSPropertyOp15
 70
     1
102
RTVSPropertyOp16
 70
     1
102
RTVSPropertyOp17
 70
     1
102
RTVSPropertyOp18
 70
     1
102
RTVSPropertyOp19
 70
     1
102
RTVSPropertyOp20
 70
     1
102
RTVSPropertyOp21
 70
     1
102
RTVSPropertyOp22
 70
     1
102
RTVSPropertyOp23
 70
     1
102
RTVSPropertyOp24
 70
     1
102
RTVSPropertyOp25
 70
     1
102
RTVSPropertyOp26
 70
     1
102
RTVSPropertyOp27
 70
     1
102
RTVSPropertyOp28
 70
     1
102
RTVSPropertyOp29
 70
     1
102
RTVSPropertyOp30
 70
     1
102
RTVSPropertyOp31
 70
     1
102
RTVSPropertyOp32
 70
     1
102
RTVSPropertyOp33
 70
     1
102
RTVSPropertyOp34
 70
     1
102
RTVSPropertyOp35
 70
     1
102
RTVSPropertyOp36
 70
     1
102
RTVSPropertyOp37
 70
     1
102
RTVSPropertyOp38
 70
     1
102
RTVSPropertyOp39
 70
     1
102
RTVSPropertyOp40
 70
     1
102
RTVSPropertyOp41
 70
     1
102
RTVSPropertyOp42
 70
     1
102
RTVSPropertyOp43
 70
     1
102
RTVSPropertyOp44
 70
     1
102
RTVSPropertyOp45
 70
     1
102
RTVSPropertyOp46
 70
     1
102
RTVSPropertyOp47
 70
     1
102
RTVSPropertyOp48
 70
     1
102
RTVSPropertyOp49
 70
     1
102
RTVSPropertyOp50
 70
     1
102
RTVSPropertyOp51
 70
     0
102
RTVSPropertyOp52
 70
     0
102
RTVSPropertyOp53
 70
     1
102
RTVSPropertyOp54
 70
     1
102
RTVSPropertyOp55
 70
     1
102
RTVSPropertyOp56
 70
     1
102
RTVSPropertyOp57
 70
     1
102
RTVSPost2010Prop28
280
     0
102
RTVSPost2010PropOp28
 70
     1
102
RTVSPost2010Prop29
280
     1
102
RTVSPost2010PropOp29
 70
     1
102
RTVSPost2010Prop30
280
     1
102
RTVSPost2010PropOp30
 70
     1
102
RTVSPost2010Prop31
280
     0
102
RTVSPost2010PropOp31
 70
     1
102
RTVSPost2010Prop32
280
     0
102
RTVSPost2010PropOp32
 70
     1
102
RTVSPost2010Prop33
280
     0
102
RTVSPost2010PropOp33
 70
     1
102
RTVSPost2010Prop34
280
     0
102
RTVSPost2010PropOp34
 70
     1
102
RTVSPost2010Prop35
280
     0
102
RTVSPost2010PropOp35
 70
     1
102
RTVSPost2010Prop36
280
     0
102
RTVSPost2010PropOp36
 70
     1
102
RTVSPost2010Prop37
 90
       50
102
RTVSPost2010PropOp37
 70
     1
102
RTVSPost2010Prop38
140
0.0
102
RTVSPost2010PropOp38
 70
     1
102
RTVSPost2010Prop39
140
1.0
102
RTVSPost2010PropOp39
 70
     1
102
RTVSPost2010Prop40
 90
        0
102
RTVSPost2010PropOp40
 70
     1
102
RTVSPost2010Prop41ColorIndex
 90
       18
102
RTVSPost2010Prop41ColorRGB
 90
        0
102
RTVSPost2010PropOp41
 70
     1
102
RTVSPost2010Prop42
 90
       50
102
RTVSPost2010PropOp42
 70
     1
102
RTVSPost2010Prop43
 90
        3
102
RTVSPost2010PropOp43
 70
     1
102
RTVSPost2010Prop44ColorIndex
 90
        5
102
RTVSPost2010Prop44ColorRGB
 90
      255
102
RTVSPost2010PropOp44
 70
     1
102
RTVSPost2010Prop45
280
     0
102
RTVSPost2010PropOp45
 70
     1
102
RTVSPost2010Prop46
 90
       50
102
RTVSPost2010PropOp46
 70
     1
102
RTVSPost2010Prop47
 90
       50
102
RTVSPost2010PropOp47
 70
     1
102
RTVSPost2010Prop48
 90
       50
102
RTVSPost2010PropOp48
 70
     1
102
RTVSPost2010Prop49
280
     0
102
RTVSPost2010PropOp49
 70
     1
102
RTVSPost2010Prop50
 90
       50
102
RTVSPost2010PropOp50
 70
     1
102
RTVSPost2010Prop51ColorIndex
 90
      256
102
RTVSPost2010Prop51ColorRGB
 90
-16777216
102
RTVSPost2010PropOp51
 70
     0
102
RTVSPost2010Prop52
140
1.0
102
RTVSPost2010PropOp52
 70
     0
102
RTVSPost2010Prop53
 90
        2
102
RTVSPost2010PropOp53
 70
     1
102
RTVSPost2010Prop54
  1
strokes_ogs.tif
102
RTVSPost2010PropOp54
 70
     1
102
RTVSPost2010Prop55
280
     0
102
RTVSPost2010PropOp55
 70
     1
102
RTVSPost2010Prop56
140
1.0
102
RTVSPost2010PropOp56
 70
     1
102
RTVSPost2010Prop57
140
1.0
102
RTVSPost2010PropOp57
 70
     1
  0
XRECORD
  5
A8
102
{ACAD_REACTORS
330
A7
102
}
330
A7
100
AcDbXrecord
280
     1
102
RTVSPropertyOp0
 70
     0
102
RTVSPropertyOp1
 70
     0
102
RTVSPropertyOp2
 70
     0
102
RTVSPropertyOp3
 70
     0
102
RTVSPropertyOp4
 70
     0
102
RTVSPropertyOp5
 70
     0
102
RTVSPropertyOp6
 70
     0
102
RTVSPropertyOp7
 70
     0
102
RTVSPropertyOp8
 70
     0
102
RTVSPropertyOp9
 70
     0
102
RTVSPropertyOp10
 70
     0
102
RTVSPropertyOp11
 70
     0
102
RTVSPropertyOp12
 70
     0
102
RTVSPropertyOp13
 70
     0
102
RTVSPropertyOp14
 70
     2
102
RTVSPropertyOp15
 70
     0
102
RTVSPropertyOp16
 70
     0
102
RTVSPropertyOp17
 70
     0
102
RTVSPropertyOp18
 70
     0
102
RTVSPropertyOp19
 70
     0
102
RTVSPropertyOp20
 70
     0
102
RTVSPropertyOp21
 70
     0
102
RTVSPropertyOp22
 70
     0
102
RTVSPropertyOp23
 70
     0
102
RTVSPropertyOp24
 70
     0
102
RTVSPropertyOp25
 70
     0
102
RTVSPropertyOp26
 70
     0
102
RTVSPropertyOp27
 70
     0
102
RTVSPropertyOp28
 70
     0
102
RTVSPropertyOp29
 70
     0
102
RTVSPropertyOp30
 70
     0
102
RTVSPropertyOp31
 70
     0
102
RTVSPropertyOp32
 70
     0
102
RTVSPropertyOp33
 70
     0
102
RTVSPropertyOp34
 70
     0
102
RTVSPropertyOp35
 70
     0
102
RTVSPropertyOp36
 70
     0
102
RTVSPropertyOp37
 70
     0
102
RTVSPropertyOp38
 70
     0
102
RTVSPropertyOp39
 70
     0
102
RTVSPropertyOp40
 70
     0
102
RTVSPropertyOp41
 70
     0
102
RTVSPropertyOp42
 70
     0
102
RTVSPropertyOp43
 70
     0
102
RTVSPropertyOp44
 70
     0
102
RTVSPropertyOp45
 70
     0
102
RTVSPropertyOp46
 70
     0
102
RTVSPropertyOp47
 70
     0
102
RTVSPropertyOp48
 70
     0
102
RTVSPropertyOp49
 70
     0
102
RTVSPropertyOp50
 70
     0
102
RTVSPropertyOp51
 70
     0
102
RTVSPropertyOp52
 70
     0
102
RTVSPropertyOp53
 70
     0
102
RTVSPropertyOp54
 70
     0
102
RTVSPropertyOp55
 70
     0
102
RTVSPropertyOp56
 70
     0
102
RTVSPropertyOp57
 70
     0
102
RTVSPost2010Prop28
280
     0
102
RTVSPost2010PropOp28
 70
     0
102
RTVSPost2010Prop29
280
     1
102
RTVSPost2010PropOp29
 70
     0
102
RTVSPost2010Prop30
280
     1
102
RTVSPost2010PropOp30
 70
     0
102
RTVSPost2010Prop31
280
     0
102
RTVSPost2010PropOp31
 70
     0
102
RTVSPost2010Prop32
280
     0
102
RTVSPost2010PropOp32
 70
     0
102
RTVSPost2010Prop33
280
     0
102
RTVSPost2010PropOp33
 70
     0
102
RTVSPost2010Prop34
280
     0
102
RTVSPost2010PropOp34
 70
     0
102
RTVSPost2010Prop35
280
     0
102
RTVSPost2010PropOp35
 70
     0
102
RTVSPost2010Prop36
280
     0
102
RTVSPost2010PropOp36
 70
     0
102
RTVSPost2010Prop37
 90
       50
102
RTVSPost2010PropOp37
 70
     0
102
RTVSPost2010Prop38
140
0.0
102
RTVSPost2010PropOp38
 70
     0
102
RTVSPost2010Prop39
140
1.0
102
RTVSPost2010PropOp39
 70
     0
102
RTVSPost2010Prop40
 90
        0
102
RTVSPost2010PropOp40
 70
     0
102
RTVSPost2010Prop41ColorIndex
 90
       18
102
RTVSPost2010Prop41ColorRGB
 90
        0
102
RTVSPost2010PropOp41
 70
     0
102
RTVSPost2010Prop42
 90
       50
102
RTVSPost2010PropOp42
 70
     0
102
RTVSPost2010Prop43
 90
        3
102
RTVSPost2010PropOp43
 70
     0
102
RTVSPost2010Prop44ColorIndex
 90
        5
102
RTVSPost2010Prop44ColorRGB
 90
      255
102
RTVSPost2010PropOp44
 70
     0
102
RTVSPost2010Prop45
280
     0
102
RTVSPost2010PropOp45
 70
     0
102
RTVSPost2010Prop46
 90
       50
102
RTVSPost2010PropOp46
 70
     0
102
RTVSPost2010Prop47
 90
       50
102
RTVSPost2010PropOp47
 70
     0
102
RTVSPost2010Prop48
 90
       50
102
RTVSPost2010PropOp48
 70
     0
102
RTVSPost2010Prop49
280
     0
102
RTVSPost2010PropOp49
 70
     0
102
RTVSPost2010Prop50
 90
       50
102
RTVSPost2010PropOp50
 70
     0
102
RTVSPost2010Prop51ColorIndex
 90
      256
102
RTVSPost2010Prop51ColorRGB
 90
-16777216
102
RTVSPost2010PropOp51
 70
     0
102
RTVSPost2010Prop52
140
1.0
102
RTVSPost2010PropOp52
 70
     0
102
RTVSPost2010Prop53
 90
        2
102
RTVSPost2010PropOp53
 70
     0
102
RTVSPost2010Prop54
  1
strokes_ogs.tif
102
RTVSPost2010PropOp54
 70
     0
102
RTVSPost2010Prop55
280
     0
102
RTVSPost2010PropOp55
 70
     0
102
RTVSPost2010Prop56
140
1.0
102
RTVSPost2010PropOp56
 70
     0
102
RTVSPost2010Prop57
140
1.0
102
RTVSPost2010PropOp57
 70
     0
  0
XRECORD
  5
96
102
{ACAD_REACTORS
330
95
102
}
330
95
100
AcDbXrecord
280
     1
102
RTVSPropertyOp0
 70
     1
102
RTVSPropertyOp1
 70
     1
102
RTVSPropertyOp2
 70
     1
102
RTVSPropertyOp3
 70
     1
102
RTVSPropertyOp4
 70
     1
102
RTVSPropertyOp5
 70
     1
102
RTVSPropertyOp6
 70
     1
102
RTVSPropertyOp7
 70
     1
102
RTVSPropertyOp8
 70
     1
102
RTVSPropertyOp9
 70
     1
102
RTVSPropertyOp10
 70
     1
102
RTVSPropertyOp11
 70
     1
102
RTVSPropertyOp12
 70
     1
102
RTVSPropertyOp13
 70
     1
102
RTVSPropertyOp14
 70
     1
102
RTVSPropertyOp15
 70
     1
102
RTVSPropertyOp16
 70
     1
102
RTVSPropertyOp17
 70
     1
102
RTVSPropertyOp18
 70
     1
102
RTVSPropertyOp19
 70
     1
102
RTVSPropertyOp20
 70
     1
102
RTVSPropertyOp21
 70
     1
102
RTVSPropertyOp22
 70
     1
102
RTVSPropertyOp23
 70
     1
102
RTVSPropertyOp24
 70
     1
102
RTVSPropertyOp25
 70
     1
102
RTVSPropertyOp26
 70
     1
102
RTVSPropertyOp27
 70
     1
102
RTVSPropertyOp28
 70
     1
102
RTVSPropertyOp29
 70
     1
102
RTVSPropertyOp30
 70
     1
102
RTVSPropertyOp31
 70
     1
102
RTVSPropertyOp32
 70
     1
102
RTVSPropertyOp33
 70
     1
102
RTVSPropertyOp34
 70
     1
102
RTVSPropertyOp35
 70
     1
102
RTVSPropertyOp36
 70
     1
102
RTVSPropertyOp37
 70
     1
102
RTVSPropertyOp38
 70
     1
102
RTVSPropertyOp39
 70
     1
102
RTVSPropertyOp40
 70
     1
102
RTVSPropertyOp41
 70
     1
102
RTVSPropertyOp42
 70
     1
102
RTVSPropertyOp43
 70
     1
102
RTVSPropertyOp44
 70
     1
102
RTVSPropertyOp45
 70
     1
102
RTVSPropertyOp46
 70
     1
102
RTVSPropertyOp47
 70
     1
102
RTVSPropertyOp48
 70
     1
102
RTVSPropertyOp49
 70
     1
102
RTVSPropertyOp50
 70
     1
102
RTVSPropertyOp51
 70
     0
102
RTVSPropertyOp52
 70
     0
102
RTVSPropertyOp53
 70
     1
102
RTVSPropertyOp54
 70
     1
102
RTVSPropertyOp55
 70
     1
102
RTVSPropertyOp56
 70
     1
102
RTVSPropertyOp57
 70
     1
102
RTVSPost2010Prop28
280
     0
102
RTVSPost2010PropOp28
 70
     1
102
RTVSPost2010Prop29
280
     1
102
RTVSPost2010PropOp29
 70
     1
102
RTVSPost2010Prop30
280
     1
102
RTVSPost2010PropOp30
 70
     1
102
RTVSPost2010Prop31
280
     0
102
RTVSPost2010PropOp31
 70
     1
102
RTVSPost2010Prop32
280
     0
102
RTVSPost2010PropOp32
 70
     1
102
RTVSPost2010Prop33
280
     0
102
RTVSPost2010PropOp33
 70
     1
102
RTVSPost2010Prop34
280
     0
102
RTVSPost2010PropOp34
 70
     1
102
RTVSPost2010Prop35
280
     0
102
RTVSPost2010PropOp35
 70
     1
102
RTVSPost2010Prop36
280
     0
102
RTVSPost2010PropOp36
 70
     1
102
RTVSPost2010Prop37
 90
       50
102
RTVSPost2010PropOp37
 70
     1
102
RTVSPost2010Prop38
140
0.0
102
RTVSPost2010PropOp38
 70
     1
102
RTVSPost2010Prop39
140
1.0
102
RTVSPost2010PropOp39
 70
     1
102
RTVSPost2010Prop40
 90
        0
102
RTVSPost2010PropOp40
 70
     1
102
RTVSPost2010Prop41ColorIndex
 90
       18
102
RTVSPost2010Prop41ColorRGB
 90
        0
102
RTVSPost2010PropOp41
 70
     1
102
RTVSPost2010Prop42
 90
       50
102
RTVSPost2010PropOp42
 70
     1
102
RTVSPost2010Prop43
 90
        3
102
RTVSPost2010PropOp43
 70
     1
102
RTVSPost2010Prop44ColorIndex
 90
        5
102
RTVSPost2010Prop44ColorRGB
 90
      255
102
RTVSPost2010PropOp44
 70
     1
102
RTVSPost2010Prop45
280
     0
102
RTVSPost2010PropOp45
 70
     1
102
RTVSPost2010Prop46
 90
       50
102
RTVSPost2010PropOp46
 70
     1
102
RTVSPost2010Prop47
 90
       50
102
RTVSPost2010PropOp47
 70
     1
102
RTVSPost2010Prop48
 90
       50
102
RTVSPost2010PropOp48
 70
     1
102
RTVSPost2010Prop49
280
     0
102
RTVSPost2010PropOp49
 70
     1
102
RTVSPost2010Prop50
 90
       50
102
RTVSPost2010PropOp50
 70
     1
102
RTVSPost2010Prop51ColorIndex
 90
      256
102
RTVSPost2010Prop51ColorRGB
 90
-16777216
102
RTVSPost2010PropOp51
 70
     0
102
RTVSPost2010Prop52
140
1.0
102
RTVSPost2010PropOp52
 70
     0
102
RTVSPost2010Prop53
 90
        2
102
RTVSPost2010PropOp53
 70
     1
102
RTVSPost2010Prop54
  1
strokes_ogs.tif
102
RTVSPost2010PropOp54
 70
     1
102
RTVSPost2010Prop55
280
     0
102
RTVSPost2010PropOp55
 70
     1
102
RTVSPost2010Prop56
140
1.0
102
RTVSPost2010PropOp56
 70
     1
102
RTVSPost2010Prop57
140
1.0
102
RTVSPost2010PropOp57
 70
     1
  0
XRECORD
  5
B4
102
{ACAD_REACTORS
330
B3
102
}
330
B3
100
AcDbXrecord
280
     1
102
RTVSPropertyOp0
 70
     1
102
RTVSPropertyOp1
 70
     1
102
RTVSPropertyOp2
 70
     1
102
RTVSPropertyOp3
 70
     1
102
RTVSPropertyOp4
 70
     1
102
RTVSPropertyOp5
 70
     1
102
RTVSPropertyOp6
 70
     1
102
RTVSPropertyOp7
 70
     1
102
RTVSPropertyOp8
 70
     1
102
RTVSPropertyOp9
 70
     1
102
RTVSPropertyOp10
 70
     1
102
RTVSPropertyOp11
 70
     1
102
RTVSPropertyOp12
 70
     1
102
RTVSPropertyOp13
 70
     1
102
RTVSPropertyOp14
 70
     1
102
RTVSPropertyOp15
 70
     1
102
RTVSPropertyOp16
 70
     1
102
RTVSPropertyOp17
 70
     1
102
RTVSPropertyOp18
 70
     1
102
RTVSPropertyOp19
 70
     1
102
RTVSPropertyOp20
 70
     1
102
RTVSPropertyOp21
 70
     1
102
RTVSPropertyOp22
 70
     1
102
RTVSPropertyOp23
 70
     1
102
RTVSPropertyOp24
 70
     1
102
RTVSPropertyOp25
 70
     1
102
RTVSPropertyOp26
 70
     1
102
RTVSPropertyOp27
 70
     1
102
RTVSPropertyOp28
 70
     1
102
RTVSPropertyOp29
 70
     1
102
RTVSPropertyOp30
 70
     1
102
RTVSPropertyOp31
 70
     1
102
RTVSPropertyOp32
 70
     1
102
RTVSPropertyOp33
 70
     1
102
RTVSPropertyOp34
 70
     1
102
RTVSPropertyOp35
 70
     1
102
RTVSPropertyOp36
 70
     1
102
RTVSPropertyOp37
 70
     1
102
RTVSPropertyOp38
 70
     1
102
RTVSPropertyOp39
 70
     1
102
RTVSPropertyOp40
 70
     1
102
RTVSPropertyOp41
 70
     1
102
RTVSPropertyOp42
 70
     1
102
RTVSPropertyOp43
 70
     1
102
RTVSPropertyOp44
 70
     1
102
RTVSPropertyOp45
 70
     1
102
RTVSPropertyOp46
 70
     1
102
RTVSPropertyOp47
 70
     1
102
RTVSPropertyOp48
 70
     1
102
RTVSPropertyOp49
 70
     1
102
RTVSPropertyOp50
 70
     1
102
RTVSPropertyOp51
 70
     0
102
RTVSPropertyOp52
 70
     0
102
RTVSPropertyOp53
 70
     1
102
RTVSPropertyOp54
 70
     1
102
RTVSPropertyOp55
 70
     1
102
RTVSPropertyOp56
 70
     1
102
RTVSPropertyOp57
 70
     1
102
RTVSPost2010Prop28
280
     0
102
RTVSPost2010PropOp28
 70
     1
102
RTVSPost2010Prop29
280
     1
102
RTVSPost2010PropOp29
 70
     1
102
RTVSPost2010Prop30
280
     1
102
RTVSPost2010PropOp30
 70
     1
102
RTVSPost2010Prop31
280
     0
102
RTVSPost2010PropOp31
 70
     1
102
RTVSPost2010Prop32
280
     0
102
RTVSPost2010PropOp32
 70
     1
102
RTVSPost2010Prop33
280
     0
102
RTVSPost2010PropOp33
 70
     1
102
RTVSPost2010Prop34
280
     0
102
RTVSPost2010PropOp34
 70
     1
102
RTVSPost2010Prop35
280
     0
102
RTVSPost2010PropOp35
 70
     1
102
RTVSPost2010Prop36
280
     0
102
RTVSPost2010PropOp36
 70
     1
102
RTVSPost2010Prop37
 90
       50
102
RTVSPost2010PropOp37
 70
     1
102
RTVSPost2010Prop38
140
0.0
102
RTVSPost2010PropOp38
 70
     1
102
RTVSPost2010Prop39
140
1.0
102
RTVSPost2010PropOp39
 70
     1
102
RTVSPost2010Prop40
 90
        0
102
RTVSPost2010PropOp40
 70
     1
102
RTVSPost2010Prop41ColorIndex
 90
       18
102
RTVSPost2010Prop41ColorRGB
 90
        0
102
RTVSPost2010PropOp41
 70
     1
102
RTVSPost2010Prop42
 90
       50
102
RTVSPost2010PropOp42
 70
     1
102
RTVSPost2010Prop43
 90
        3
102
RTVSPost2010PropOp43
 70
     1
102
RTVSPost2010Prop44ColorIndex
 90
        5
102
RTVSPost2010Prop44ColorRGB
 90
      255
102
RTVSPost2010PropOp44
 70
     1
102
RTVSPost2010Prop45
280
     0
102
RTVSPost2010PropOp45
 70
     1
102
RTVSPost2010Prop46
 90
       50
102
RTVSPost2010PropOp46
 70
     1
102
RTVSPost2010Prop47
 90
       50
102
RTVSPost2010PropOp47
 70
     1
102
RTVSPost2010Prop48
 90
       50
102
RTVSPost2010PropOp48
 70
     1
102
RTVSPost2010Prop49
280
     0
102
RTVSPost2010PropOp49
 70
     1
102
RTVSPost2010Prop50
 90
       50
102
RTVSPost2010PropOp50
 70
     1
102
RTVSPost2010Prop51ColorIndex
 90
      256
102
RTVSPost2010Prop51ColorRGB
 90
-16777216
102
RTVSPost2010PropOp51
 70
     0
102
RTVSPost2010Prop52
140
1.0
102
RTVSPost2010PropOp52
 70
     0
102
RTVSPost2010Prop53
 90
        2
102
RTVSPost2010PropOp53
 70
     1
102
RTVSPost2010Prop54
  1
strokes_ogs.tif
102
RTVSPost2010PropOp54
 70
     1
102
RTVSPost2010Prop55
280
     0
102
RTVSPost2010PropOp55
 70
     1
102
RTVSPost2010Prop56
140
1.0
102
RTVSPost2010PropOp56
 70
     1
102
RTVSPost2010Prop57
140
1.0
102
RTVSPost2010PropOp57
 70
     1
  0
XRECORD
  5
B2
102
{ACAD_REACTORS
330
B1
102
}
330
B1
100
AcDbXrecord
280
     1
102
RTVSPropertyOp0
 70
     1
102
RTVSPropertyOp1
 70
     1
102
RTVSPropertyOp2
 70
     1
102
RTVSPropertyOp3
 70
     1
102
RTVSPropertyOp4
 70
     1
102
RTVSPropertyOp5
 70
     1
102
RTVSPropertyOp6
 70
     1
102
RTVSPropertyOp7
 70
     1
102
RTVSPropertyOp8
 70
     1
102
RTVSPropertyOp9
 70
     1
102
RTVSPropertyOp10
 70
     1
102
RTVSPropertyOp11
 70
     1
102
RTVSPropertyOp12
 70
     1
102
RTVSPropertyOp13
 70
     1
102
RTVSPropertyOp14
 70
     1
102
RTVSPropertyOp15
 70
     1
102
RTVSPropertyOp16
 70
     1
102
RTVSPropertyOp17
 70
     1
102
RTVSPropertyOp18
 70
     1
102
RTVSPropertyOp19
 70
     1
102
RTVSPropertyOp20
 70
     1
102
RTVSPropertyOp21
 70
     1
102
RTVSPropertyOp22
 70
     1
102
RTVSPropertyOp23
 70
     1
102
RTVSPropertyOp24
 70
     1
102
RTVSPropertyOp25
 70
     1
102
RTVSPropertyOp26
 70
     1
102
RTVSPropertyOp27
 70
     1
102
RTVSPropertyOp28
 70
     1
102
RTVSPropertyOp29
 70
     1
102
RTVSPropertyOp30
 70
     1
102
RTVSPropertyOp31
 70
     1
102
RTVSPropertyOp32
 70
     1
102
RTVSPropertyOp33
 70
     1
102
RTVSPropertyOp34
 70
     1
102
RTVSPropertyOp35
 70
     1
102
RTVSPropertyOp36
 70
     1
102
RTVSPropertyOp37
 70
     1
102
RTVSPropertyOp38
 70
     1
102
RTVSPropertyOp39
 70
     1
102
RTVSPropertyOp40
 70
     1
102
RTVSPropertyOp41
 70
     1
102
RTVSPropertyOp42
 70
     1
102
RTVSPropertyOp43
 70
     1
102
RTVSPropertyOp44
 70
     1
102
RTVSPropertyOp45
 70
     1
102
RTVSPropertyOp46
 70
     1
102
RTVSPropertyOp47
 70
     1
102
RTVSPropertyOp48
 70
     1
102
RTVSPropertyOp49
 70
     1
102
RTVSPropertyOp50
 70
     1
102
RTVSPropertyOp51
 70
     0
102
RTVSPropertyOp52
 70
     0
102
RTVSPropertyOp53
 70
     1
102
RTVSPropertyOp54
 70
     1
102
RTVSPropertyOp55
 70
     1
102
RTVSPropertyOp56
 70
     1
102
RTVSPropertyOp57
 70
     1
102
RTVSPost2010Prop28
280
     0
102
RTVSPost2010PropOp28
 70
     1
102
RTVSPost2010Prop29
280
     1
102
RTVSPost2010PropOp29
 70
     1
102
RTVSPost2010Prop30
280
     1
102
RTVSPost2010PropOp30
 70
     1
102
RTVSPost2010Prop31
280
     0
102
RTVSPost2010PropOp31
 70
     1
102
RTVSPost2010Prop32
280
     0
102
RTVSPost2010PropOp32
 70
     1
102
RTVSPost2010Prop33
280
     0
102
RTVSPost2010PropOp33
 70
     1
102
RTVSPost2010Prop34
280
     0
102
RTVSPost2010PropOp34
 70
     1
102
RTVSPost2010Prop35
280
     0
102
RTVSPost2010PropOp35
 70
     1
102
RTVSPost2010Prop36
280
     0
102
RTVSPost2010PropOp36
 70
     1
102
RTVSPost2010Prop37
 90
       50
102
RTVSPost2010PropOp37
 70
     1
102
RTVSPost2010Prop38
140
0.0
102
RTVSPost2010PropOp38
 70
     1
102
RTVSPost2010Prop39
140
1.0
102
RTVSPost2010PropOp39
 70
     1
102
RTVSPost2010Prop40
 90
        0
102
RTVSPost2010PropOp40
 70
     1
102
RTVSPost2010Prop41ColorIndex
 90
       18
102
RTVSPost2010Prop41ColorRGB
 90
        0
102
RTVSPost2010PropOp41
 70
     1
102
RTVSPost2010Prop42
 90
       50
102
RTVSPost2010PropOp42
 70
     1
102
RTVSPost2010Prop43
 90
        3
102
RTVSPost2010PropOp43
 70
     1
102
RTVSPost2010Prop44ColorIndex
 90
        5
102
RTVSPost2010Prop44ColorRGB
 90
      255
102
RTVSPost2010PropOp44
 70
     1
102
RTVSPost2010Prop45
280
     0
102
RTVSPost2010PropOp45
 70
     1
102
RTVSPost2010Prop46
 90
       50
102
RTVSPost2010PropOp46
 70
     1
102
RTVSPost2010Prop47
 90
       50
102
RTVSPost2010PropOp47
 70
     1
102
RTVSPost2010Prop48
 90
       50
102
RTVSPost2010PropOp48
 70
     1
102
RTVSPost2010Prop49
280
     0
102
RTVSPost2010PropOp49
 70
     1
102
RTVSPost2010Prop50
 90
       50
102
RTVSPost2010PropOp50
 70
     1
102
RTVSPost2010Prop51ColorIndex
 90
      256
102
RTVSPost2010Prop51ColorRGB
 90
-16777216
102
RTVSPost2010PropOp51
 70
     0
102
RTVSPost2010Prop52
140
1.0
102
RTVSPost2010PropOp52
 70
     0
102
RTVSPost2010Prop53
 90
        2
102
RTVSPost2010PropOp53
 70
     1
102
RTVSPost2010Prop54
  1
strokes_ogs.tif
102
RTVSPost2010PropOp54
 70
     1
102
RTVSPost2010Prop55
280
     0
102
RTVSPost2010PropOp55
 70
     1
102
RTVSPost2010Prop56
140
1.0
102
RTVSPost2010PropOp56
 70
     1
102
RTVSPost2010Prop57
140
1.0
102
RTVSPost2010PropOp57
 70
     1
  0
XRECORD
  5
AC
102
{ACAD_REACTORS
330
AB
102
}
330
AB
100
AcDbXrecord
280
     1
102
RTVSPropertyOp0
 70
     1
102
RTVSPropertyOp1
 70
     1
102
RTVSPropertyOp2
 70
     1
102
RTVSPropertyOp3
 70
     1
102
RTVSPropertyOp4
 70
     1
102
RTVSPropertyOp5
 70
     1
102
RTVSPropertyOp6
 70
     1
102
RTVSPropertyOp7
 70
     1
102
RTVSPropertyOp8
 70
     1
102
RTVSPropertyOp9
 70
     1
102
RTVSPropertyOp10
 70
     1
102
RTVSPropertyOp11
 70
     1
102
RTVSPropertyOp12
 70
     1
102
RTVSPropertyOp13
 70
     1
102
RTVSPropertyOp14
 70
     1
102
RTVSPropertyOp15
 70
     1
102
RTVSPropertyOp16
 70
     1
102
RTVSPropertyOp17
 70
     1
102
RTVSPropertyOp18
 70
     1
102
RTVSPropertyOp19
 70
     1
102
RTVSPropertyOp20
 70
     1
102
RTVSPropertyOp21
 70
     1
102
RTVSPropertyOp22
 70
     1
102
RTVSPropertyOp23
 70
     1
102
RTVSPropertyOp24
 70
     1
102
RTVSPropertyOp25
 70
     1
102
RTVSPropertyOp26
 70
     1
102
RTVSPropertyOp27
 70
     1
102
RTVSPropertyOp28
 70
     1
102
RTVSPropertyOp29
 70
     1
102
RTVSPropertyOp30
 70
     1
102
RTVSPropertyOp31
 70
     1
102
RTVSPropertyOp32
 70
     1
102
RTVSPropertyOp33
 70
     1
102
RTVSPropertyOp34
 70
     1
102
RTVSPropertyOp35
 70
     1
102
RTVSPropertyOp36
 70
     1
102
RTVSPropertyOp37
 70
     1
102
RTVSPropertyOp38
 70
     1
102
RTVSPropertyOp39
 70
     1
102
RTVSPropertyOp40
 70
     1
102
RTVSPropertyOp41
 70
     1
102
RTVSPropertyOp42
 70
     1
102
RTVSPropertyOp43
 70
     1
102
RTVSPropertyOp44
 70
     1
102
RTVSPropertyOp45
 70
     1
102
RTVSPropertyOp46
 70
     1
102
RTVSPropertyOp47
 70
     1
102
RTVSPropertyOp48
 70
     1
102
RTVSPropertyOp49
 70
     1
102
RTVSPropertyOp50
 70
     1
102
RTVSPropertyOp51
 70
     0
102
RTVSPropertyOp52
 70
     0
102
RTVSPropertyOp53
 70
     1
102
RTVSPropertyOp54
 70
     1
102
RTVSPropertyOp55
 70
     1
102
RTVSPropertyOp56
 70
     1
102
RTVSPropertyOp57
 70
     1
102
RTVSPost2010Prop28
280
     0
102
RTVSPost2010PropOp28
 70
     1
102
RTVSPost2010Prop29
280
     1
102
RTVSPost2010PropOp29
 70
     1
102
RTVSPost2010Prop30
280
     1
102
RTVSPost2010PropOp30
 70
     1
102
RTVSPost2010Prop31
280
     0
102
RTVSPost2010PropOp31
 70
     1
102
RTVSPost2010Prop32
280
     0
102
RTVSPost2010PropOp32
 70
     1
102
RTVSPost2010Prop33
280
     0
102
RTVSPost2010PropOp33
 70
     1
102
RTVSPost2010Prop34
280
     0
102
RTVSPost2010PropOp34
 70
     1
102
RTVSPost2010Prop35
280
     0
102
RTVSPost2010PropOp35
 70
     1
102
RTVSPost2010Prop36
280
     0
102
RTVSPost2010PropOp36
 70
     1
102
RTVSPost2010Prop37
 90
       50
102
RTVSPost2010PropOp37
 70
     1
102
RTVSPost2010Prop38
140
0.0
102
RTVSPost2010PropOp38
 70
     1
102
RTVSPost2010Prop39
140
1.0
102
RTVSPost2010PropOp39
 70
     1
102
RTVSPost2010Prop40
 90
        0
102
RTVSPost2010PropOp40
 70
     1
102
RTVSPost2010Prop41ColorIndex
 90
       18
102
RTVSPost2010Prop41ColorRGB
 90
        0
102
RTVSPost2010PropOp41
 70
     1
102
RTVSPost2010Prop42
 90
       50
102
RTVSPost2010PropOp42
 70
     1
102
RTVSPost2010Prop43
 90
        3
102
RTVSPost2010PropOp43
 70
     1
102
RTVSPost2010Prop44ColorIndex
 90
        5
102
RTVSPost2010Prop44ColorRGB
 90
      255
102
RTVSPost2010PropOp44
 70
     1
102
RTVSPost2010Prop45
280
     0
102
RTVSPost2010PropOp45
 70
     1
102
RTVSPost2010Prop46
 90
       50
102
RTVSPost2010PropOp46
 70
     1
102
RTVSPost2010Prop47
 90
       50
102
RTVSPost2010PropOp47
 70
     1
102
RTVSPost2010Prop48
 90
       50
102
RTVSPost2010PropOp48
 70
     1
102
RTVSPost2010Prop49
280
     0
102
RTVSPost2010PropOp49
 70
     1
102
RTVSPost2010Prop50
 90
       50
102
RTVSPost2010PropOp50
 70
     1
102
RTVSPost2010Prop51ColorIndex
 90
      256
102
RTVSPost2010Prop51ColorRGB
 90
-16777216
102
RTVSPost2010PropOp51
 70
     0
102
RTVSPost2010Prop52
140
1.0
102
RTVSPost2010PropOp52
 70
     0
102
RTVSPost2010Prop53
 90
        2
102
RTVSPost2010PropOp53
 70
     1
102
RTVSPost2010Prop54
  1
strokes_ogs.tif
102
RTVSPost2010PropOp54
 70
     1
102
RTVSPost2010Prop55
280
     0
102
RTVSPost2010PropOp55
 70
     1
102
RTVSPost2010Prop56
140
1.0
102
RTVSPost2010PropOp56
 70
     1
102
RTVSPost2010Prop57
140
1.0
102
RTVSPost2010PropOp57
 70
     1
  0
XRECORD
  5
AE
102
{ACAD_REACTORS
330
AD
102
}
330
AD
100
AcDbXrecord
280
     1
102
RTVSPropertyOp0
 70
     1
102
RTVSPropertyOp1
 70
     1
102
RTVSPropertyOp2
 70
     1
102
RTVSPropertyOp3
 70
     1
102
RTVSPropertyOp4
 70
     1
102
RTVSPropertyOp5
 70
     1
102
RTVSPropertyOp6
 70
     1
102
RTVSPropertyOp7
 70
     1
102
RTVSPropertyOp8
 70
     1
102
RTVSPropertyOp9
 70
     1
102
RTVSPropertyOp10
 70
     1
102
RTVSPropertyOp11
 70
     1
102
RTVSPropertyOp12
 70
     1
102
RTVSPropertyOp13
 70
     1
102
RTVSPropertyOp14
 70
     1
102
RTVSPropertyOp15
 70
     1
102
RTVSPropertyOp16
 70
     1
102
RTVSPropertyOp17
 70
     1
102
RTVSPropertyOp18
 70
     1
102
RTVSPropertyOp19
 70
     1
102
RTVSPropertyOp20
 70
     1
102
RTVSPropertyOp21
 70
     1
102
RTVSPropertyOp22
 70
     1
102
RTVSPropertyOp23
 70
     1
102
RTVSPropertyOp24
 70
     1
102
RTVSPropertyOp25
 70
     1
102
RTVSPropertyOp26
 70
     1
102
RTVSPropertyOp27
 70
     1
102
RTVSPropertyOp28
 70
     1
102
RTVSPropertyOp29
 70
     1
102
RTVSPropertyOp30
 70
     1
102
RTVSPropertyOp31
 70
     1
102
RTVSPropertyOp32
 70
     1
102
RTVSPropertyOp33
 70
     1
102
RTVSPropertyOp34
 70
     1
102
RTVSPropertyOp35
 70
     1
102
RTVSPropertyOp36
 70
     1
102
RTVSPropertyOp37
 70
     1
102
RTVSPropertyOp38
 70
     1
102
RTVSPropertyOp39
 70
     1
102
RTVSPropertyOp40
 70
     1
102
RTVSPropertyOp41
 70
     1
102
RTVSPropertyOp42
 70
     1
102
RTVSPropertyOp43
 70
     1
102
RTVSPropertyOp44
 70
     1
102
RTVSPropertyOp45
 70
     1
102
RTVSPropertyOp46
 70
     1
102
RTVSPropertyOp47
 70
     1
102
RTVSPropertyOp48
 70
     1
102
RTVSPropertyOp49
 70
     1
102
RTVSPropertyOp50
 70
     1
102
RTVSPropertyOp51
 70
     0
102
RTVSPropertyOp52
 70
     0
102
RTVSPropertyOp53
 70
     1
102
RTVSPropertyOp54
 70
     1
102
RTVSPropertyOp55
 70
     1
102
RTVSPropertyOp56
 70
     1
102
RTVSPropertyOp57
 70
     1
102
RTVSPost2010Prop28
280
     0
102
RTVSPost2010PropOp28
 70
     1
102
RTVSPost2010Prop29
280
     1
102
RTVSPost2010PropOp29
 70
     1
102
RTVSPost2010Prop30
280
     1
102
RTVSPost2010PropOp30
 70
     1
102
RTVSPost2010Prop31
280
     0
102
RTVSPost2010PropOp31
 70
     1
102
RTVSPost2010Prop32
280
     0
102
RTVSPost2010PropOp32
 70
     1
102
RTVSPost2010Prop33
280
     0
102
RTVSPost2010PropOp33
 70
     1
102
RTVSPost2010Prop34
280
     0
102
RTVSPost2010PropOp34
 70
     1
102
RTVSPost2010Prop35
280
     0
102
RTVSPost2010PropOp35
 70
     1
102
RTVSPost2010Prop36
280
     0
102
RTVSPost2010PropOp36
 70
     1
102
RTVSPost2010Prop37
 90
       50
102
RTVSPost2010PropOp37
 70
     1
102
RTVSPost2010Prop38
140
0.0
102
RTVSPost2010PropOp38
 70
     1
102
RTVSPost2010Prop39
140
1.0
102
RTVSPost2010PropOp39
 70
     1
102
RTVSPost2010Prop40
 90
        0
102
RTVSPost2010PropOp40
 70
     1
102
RTVSPost2010Prop41ColorIndex
 90
       18
102
RTVSPost2010Prop41ColorRGB
 90
        0
102
RTVSPost2010PropOp41
 70
     1
102
RTVSPost2010Prop42
 90
       50
102
RTVSPost2010PropOp42
 70
     1
102
RTVSPost2010Prop43
 90
        3
102
RTVSPost2010PropOp43
 70
     1
102
RTVSPost2010Prop44ColorIndex
 90
        5
102
RTVSPost2010Prop44ColorRGB
 90
      255
102
RTVSPost2010PropOp44
 70
     1
102
RTVSPost2010Prop45
280
     0
102
RTVSPost2010PropOp45
 70
     1
102
RTVSPost2010Prop46
 90
       50
102
RTVSPost2010PropOp46
 70
     1
102
RTVSPost2010Prop47
 90
       50
102
RTVSPost2010PropOp47
 70
     1
102
RTVSPost2010Prop48
 90
       50
102
RTVSPost2010PropOp48
 70
     1
102
RTVSPost2010Prop49
280
     0
102
RTVSPost2010PropOp49
 70
     1
102
RTVSPost2010Prop50
 90
       50
102
RTVSPost2010PropOp50
 70
     1
102
RTVSPost2010Prop51ColorIndex
 90
      256
102
RTVSPost2010Prop51ColorRGB
 90
-16777216
102
RTVSPost2010PropOp51
 70
     0
102
RTVSPost2010Prop52
140
1.0
102
RTVSPost2010PropOp52
 70
     0
102
RTVSPost2010Prop53
 90
        2
102
RTVSPost2010PropOp53
 70
     1
102
RTVSPost2010Prop54
  1
strokes_ogs.tif
102
RTVSPost2010PropOp54
 70
     1
102
RTVSPost2010Prop55
280
     0
102
RTVSPost2010PropOp55
 70
     1
102
RTVSPost2010Prop56
140
1.0
102
RTVSPost2010PropOp56
 70
     1
102
RTVSPost2010Prop57
140
1.0
102
RTVSPost2010PropOp57
 70
     1
  0
XRECORD
  5
9E
102
{ACAD_REACTORS
330
9D
102
}
330
9D
100
AcDbXrecord
280
     1
102
RTVSPropertyOp0
 70
     1
102
RTVSPropertyOp1
 70
     1
102
RTVSPropertyOp2
 70
     1
102
RTVSPropertyOp3
 70
     1
102
RTVSPropertyOp4
 70
     1
102
RTVSPropertyOp5
 70
     1
102
RTVSPropertyOp6
 70
     1
102
RTVSPropertyOp7
 70
     1
102
RTVSPropertyOp8
 70
     1
102
RTVSPropertyOp9
 70
     1
102
RTVSPropertyOp10
 70
     1
102
RTVSPropertyOp11
 70
     1
102
RTVSPropertyOp12
 70
     1
102
RTVSPropertyOp13
 70
     1
102
RTVSPropertyOp14
 70
     1
102
RTVSPropertyOp15
 70
     1
102
RTVSPropertyOp16
 70
     1
102
RTVSPropertyOp17
 70
     1
102
RTVSPropertyOp18
 70
     1
102
RTVSPropertyOp19
 70
     1
102
RTVSPropertyOp20
 70
     1
102
RTVSPropertyOp21
 70
     1
102
RTVSPropertyOp22
 70
     1
102
RTVSPropertyOp23
 70
     1
102
RTVSPropertyOp24
 70
     1
102
RTVSPropertyOp25
 70
     1
102
RTVSPropertyOp26
 70
     1
102
RTVSPropertyOp27
 70
     1
102
RTVSPropertyOp28
 70
     1
102
RTVSPropertyOp29
 70
     1
102
RTVSPropertyOp30
 70
     1
102
RTVSPropertyOp31
 70
     1
102
RTVSPropertyOp32
 70
     1
102
RTVSPropertyOp33
 70
     1
102
RTVSPropertyOp34
 70
     1
102
RTVSPropertyOp35
 70
     1
102
RTVSPropertyOp36
 70
     1
102
RTVSPropertyOp37
 70
     1
102
RTVSPropertyOp38
 70
     1
102
RTVSPropertyOp39
 70
     1
102
RTVSPropertyOp40
 70
     1
102
RTVSPropertyOp41
 70
     1
102
RTVSPropertyOp42
 70
     1
102
RTVSPropertyOp43
 70
     1
102
RTVSPropertyOp44
 70
     1
102
RTVSPropertyOp45
 70
     1
102
RTVSPropertyOp46
 70
     1
102
RTVSPropertyOp47
 70
     1
102
RTVSPropertyOp48
 70
     1
102
RTVSPropertyOp49
 70
     1
102
RTVSPropertyOp50
 70
     1
102
RTVSPropertyOp51
 70
     0
102
RTVSPropertyOp52
 70
     0
102
RTVSPropertyOp53
 70
     1
102
RTVSPropertyOp54
 70
     1
102
RTVSPropertyOp55
 70
     1
102
RTVSPropertyOp56
 70
     1
102
RTVSPropertyOp57
 70
     1
102
RTVSPost2010Prop28
280
     0
102
RTVSPost2010PropOp28
 70
     1
102
RTVSPost2010Prop29
280
     1
102
RTVSPost2010PropOp29
 70
     1
102
RTVSPost2010Prop30
280
     1
102
RTVSPost2010PropOp30
 70
     1
102
RTVSPost2010Prop31
280
     0
102
RTVSPost2010PropOp31
 70
     1
102
RTVSPost2010Prop32
280
     0
102
RTVSPost2010PropOp32
 70
     1
102
RTVSPost2010Prop33
280
     0
102
RTVSPost2010PropOp33
 70
     1
102
RTVSPost2010Prop34
280
     0
102
RTVSPost2010PropOp34
 70
     1
102
RTVSPost2010Prop35
280
     0
102
RTVSPost2010PropOp35
 70
     1
102
RTVSPost2010Prop36
280
     0
102
RTVSPost2010PropOp36
 70
     1
102
RTVSPost2010Prop37
 90
       50
102
RTVSPost2010PropOp37
 70
     1
102
RTVSPost2010Prop38
140
0.0
102
RTVSPost2010PropOp38
 70
     1
102
RTVSPost2010Prop39
140
1.0
102
RTVSPost2010PropOp39
 70
     1
102
RTVSPost2010Prop40
 90
        0
102
RTVSPost2010PropOp40
 70
     1
102
RTVSPost2010Prop41ColorIndex
 90
       18
102
RTVSPost2010Prop41ColorRGB
 90
        0
102
RTVSPost2010PropOp41
 70
     1
102
RTVSPost2010Prop42
 90
       50
102
RTVSPost2010PropOp42
 70
     1
102
RTVSPost2010Prop43
 90
        3
102
RTVSPost2010PropOp43
 70
     1
102
RTVSPost2010Prop44ColorIndex
 90
        5
102
RTVSPost2010Prop44ColorRGB
 90
      255
102
RTVSPost2010PropOp44
 70
     1
102
RTVSPost2010Prop45
280
     0
102
RTVSPost2010PropOp45
 70
     1
102
RTVSPost2010Prop46
 90
       50
102
RTVSPost2010PropOp46
 70
     1
102
RTVSPost2010Prop47
 90
       50
102
RTVSPost2010PropOp47
 70
     1
102
RTVSPost2010Prop48
 90
       50
102
RTVSPost2010PropOp48
 70
     1
102
RTVSPost2010Prop49
280
     0
102
RTVSPost2010PropOp49
 70
     1
102
RTVSPost2010Prop50
 90
       50
102
RTVSPost2010PropOp50
 70
     1
102
RTVSPost2010Prop51ColorIndex
 90
      256
102
RTVSPost2010Prop51ColorRGB
 90
-16777216
102
RTVSPost2010PropOp51
 70
     0
102
RTVSPost2010Prop52
140
1.0
102
RTVSPost2010PropOp52
 70
     0
102
RTVSPost2010Prop53
 90
        2
102
RTVSPost2010PropOp53
 70
     1
102
RTVSPost2010Prop54
  1
strokes_ogs.tif
102
RTVSPost2010PropOp54
 70
     1
102
RTVSPost2010Prop55
280
     0
102
RTVSPost2010PropOp55
 70
     1
102
RTVSPost2010Prop56
140
1.0
102
RTVSPost2010PropOp56
 70
     1
102
RTVSPost2010Prop57
140
1.0
102
RTVSPost2010PropOp57
 70
     1
  0
XRECORD
  5
90
102
{ACAD_REACTORS
330
8F
102
}
330
8F
100
AcDbXrecord
280
     1
102
RTVSPropertyOp0
 70
     1
102
RTVSPropertyOp1
 70
     1
102
RTVSPropertyOp2
 70
     1
102
RTVSPropertyOp3
 70
     1
102
RTVSPropertyOp4
 70
     1
102
RTVSPropertyOp5
 70
     1
102
RTVSPropertyOp6
 70
     1
102
RTVSPropertyOp7
 70
     1
102
RTVSPropertyOp8
 70
     1
102
RTVSPropertyOp9
 70
     1
102
RTVSPropertyOp10
 70
     1
102
RTVSPropertyOp11
 70
     1
102
RTVSPropertyOp12
 70
     1
102
RTVSPropertyOp13
 70
     1
102
RTVSPropertyOp14
 70
     1
102
RTVSPropertyOp15
 70
     1
102
RTVSPropertyOp16
 70
     1
102
RTVSPropertyOp17
 70
     1
102
RTVSPropertyOp18
 70
     1
102
RTVSPropertyOp19
 70
     1
102
RTVSPropertyOp20
 70
     1
102
RTVSPropertyOp21
 70
     1
102
RTVSPropertyOp22
 70
     1
102
RTVSPropertyOp23
 70
     1
102
RTVSPropertyOp24
 70
     1
102
RTVSPropertyOp25
 70
     1
102
RTVSPropertyOp26
 70
     1
102
RTVSPropertyOp27
 70
     1
102
RTVSPropertyOp28
 70
     1
102
RTVSPropertyOp29
 70
     1
102
RTVSPropertyOp30
 70
     1
102
RTVSPropertyOp31
 70
     1
102
RTVSPropertyOp32
 70
     1
102
RTVSPropertyOp33
 70
     1
102
RTVSPropertyOp34
 70
     1
102
RTVSPropertyOp35
 70
     1
102
RTVSPropertyOp36
 70
     1
102
RTVSPropertyOp37
 70
     1
102
RTVSPropertyOp38
 70
     1
102
RTVSPropertyOp39
 70
     1
102
RTVSPropertyOp40
 70
     1
102
RTVSPropertyOp41
 70
     1
102
RTVSPropertyOp42
 70
     1
102
RTVSPropertyOp43
 70
     1
102
RTVSPropertyOp44
 70
     1
102
RTVSPropertyOp45
 70
     1
102
RTVSPropertyOp46
 70
     1
102
RTVSPropertyOp47
 70
     1
102
RTVSPropertyOp48
 70
     1
102
RTVSPropertyOp49
 70
     1
102
RTVSPropertyOp50
 70
     1
102
RTVSPropertyOp51
 70
     0
102
RTVSPropertyOp52
 70
     0
102
RTVSPropertyOp53
 70
     1
102
RTVSPropertyOp54
 70
     1
102
RTVSPropertyOp55
 70
     1
102
RTVSPropertyOp56
 70
     1
102
RTVSPropertyOp57
 70
     1
102
RTVSPost2010Prop28
280
     0
102
RTVSPost2010PropOp28
 70
     1
102
RTVSPost2010Prop29
280
     1
102
RTVSPost2010PropOp29
 70
     1
102
RTVSPost2010Prop30
280
     1
102
RTVSPost2010PropOp30
 70
     1
102
RTVSPost2010Prop31
280
     0
102
RTVSPost2010PropOp31
 70
     1
102
RTVSPost2010Prop32
280
     0
102
RTVSPost2010PropOp32
 70
     1
102
RTVSPost2010Prop33
280
     0
102
RTVSPost2010PropOp33
 70
     1
102
RTVSPost2010Prop34
280
     0
102
RTVSPost2010PropOp34
 70
     1
102
RTVSPost2010Prop35
280
     0
102
RTVSPost2010PropOp35
 70
     1
102
RTVSPost2010Prop36
280
     0
102
RTVSPost2010PropOp36
 70
     1
102
RTVSPost2010Prop37
 90
       50
102
RTVSPost2010PropOp37
 70
     1
102
RTVSPost2010Prop38
140
0.0
102
RTVSPost2010PropOp38
 70
     1
102
RTVSPost2010Prop39
140
1.0
102
RTVSPost2010PropOp39
 70
     1
102
RTVSPost2010Prop40
 90
        0
102
RTVSPost2010PropOp40
 70
     1
102
RTVSPost2010Prop41ColorIndex
 90
       18
102
RTVSPost2010Prop41ColorRGB
 90
        0
102
RTVSPost2010PropOp41
 70
     1
102
RTVSPost2010Prop42
 90
       50
102
RTVSPost2010PropOp42
 70
     1
102
RTVSPost2010Prop43
 90
        3
102
RTVSPost2010PropOp43
 70
     1
102
RTVSPost2010Prop44ColorIndex
 90
        5
102
RTVSPost2010Prop44ColorRGB
 90
      255
102
RTVSPost2010PropOp44
 70
     1
102
RTVSPost2010Prop45
280
     0
102
RTVSPost2010PropOp45
 70
     1
102
RTVSPost2010Prop46
 90
       50
102
RTVSPost2010PropOp46
 70
     1
102
RTVSPost2010Prop47
 90
       50
102
RTVSPost2010PropOp47
 70
     1
102
RTVSPost2010Prop48
 90
       50
102
RTVSPost2010PropOp48
 70
     1
102
RTVSPost2010Prop49
280
     0
102
RTVSPost2010PropOp49
 70
     1
102
RTVSPost2010Prop50
 90
       50
102
RTVSPost2010PropOp50
 70
     1
102
RTVSPost2010Prop51ColorIndex
 90
      256
102
RTVSPost2010Prop51ColorRGB
 90
-16777216
102
RTVSPost2010PropOp51
 70
     0
102
RTVSPost2010Prop52
140
1.0
102
RTVSPost2010PropOp52
 70
     0
102
RTVSPost2010Prop53
 90
        2
102
RTVSPost2010PropOp53
 70
     1
102
RTVSPost2010Prop54
  1
strokes_ogs.tif
102
RTVSPost2010PropOp54
 70
     1
102
RTVSPost2010Prop55
280
     0
102
RTVSPost2010PropOp55
 70
     1
102
RTVSPost2010Prop56
140
1.0
102
RTVSPost2010PropOp56
 70
     1
102
RTVSPost2010Prop57
140
1.0
102
RTVSPost2010PropOp57
 70
     1
  0
XRECORD
  5
B0
102
{ACAD_REACTORS
330
AF
102
}
330
AF
100
AcDbXrecord
280
     1
102
RTVSPropertyOp0
 70
     1
102
RTVSPropertyOp1
 70
     1
102
RTVSPropertyOp2
 70
     1
102
RTVSPropertyOp3
 70
     1
102
RTVSPropertyOp4
 70
     1
102
RTVSPropertyOp5
 70
     1
102
RTVSPropertyOp6
 70
     1
102
RTVSPropertyOp7
 70
     1
102
RTVSPropertyOp8
 70
     1
102
RTVSPropertyOp9
 70
     1
102
RTVSPropertyOp10
 70
     1
102
RTVSPropertyOp11
 70
     1
102
RTVSPropertyOp12
 70
     1
102
RTVSPropertyOp13
 70
     1
102
RTVSPropertyOp14
 70
     1
102
RTVSPropertyOp15
 70
     1
102
RTVSPropertyOp16
 70
     1
102
RTVSPropertyOp17
 70
     1
102
RTVSPropertyOp18
 70
     1
102
RTVSPropertyOp19
 70
     1
102
RTVSPropertyOp20
 70
     1
102
RTVSPropertyOp21
 70
     1
102
RTVSPropertyOp22
 70
     1
102
RTVSPropertyOp23
 70
     1
102
RTVSPropertyOp24
 70
     1
102
RTVSPropertyOp25
 70
     1
102
RTVSPropertyOp26
 70
     1
102
RTVSPropertyOp27
 70
     1
102
RTVSPropertyOp28
 70
     1
102
RTVSPropertyOp29
 70
     1
102
RTVSPropertyOp30
 70
     1
102
RTVSPropertyOp31
 70
     1
102
RTVSPropertyOp32
 70
     1
102
RTVSPropertyOp33
 70
     1
102
RTVSPropertyOp34
 70
     1
102
RTVSPropertyOp35
 70
     1
102
RTVSPropertyOp36
 70
     1
102
RTVSPropertyOp37
 70
     1
102
RTVSPropertyOp38
 70
     1
102
RTVSPropertyOp39
 70
     1
102
RTVSPropertyOp40
 70
     1
102
RTVSPropertyOp41
 70
     1
102
RTVSPropertyOp42
 70
     1
102
RTVSPropertyOp43
 70
     1
102
RTVSPropertyOp44
 70
     1
102
RTVSPropertyOp45
 70
     1
102
RTVSPropertyOp46
 70
     1
102
RTVSPropertyOp47
 70
     1
102
RTVSPropertyOp48
 70
     1
102
RTVSPropertyOp49
 70
     1
102
RTVSPropertyOp50
 70
     1
102
RTVSPropertyOp51
 70
     0
102
RTVSPropertyOp52
 70
     0
102
RTVSPropertyOp53
 70
     1
102
RTVSPropertyOp54
 70
     1
102
RTVSPropertyOp55
 70
     1
102
RTVSPropertyOp56
 70
     1
102
RTVSPropertyOp57
 70
     1
102
RTVSPost2010Prop28
280
     0
102
RTVSPost2010PropOp28
 70
     1
102
RTVSPost2010Prop29
280
     1
102
RTVSPost2010PropOp29
 70
     1
102
RTVSPost2010Prop30
280
     1
102
RTVSPost2010PropOp30
 70
     1
102
RTVSPost2010Prop31
280
     0
102
RTVSPost2010PropOp31
 70
     1
102
RTVSPost2010Prop32
280
     0
102
RTVSPost2010PropOp32
 70
     1
102
RTVSPost2010Prop33
280
     0
102
RTVSPost2010PropOp33
 70
     1
102
RTVSPost2010Prop34
280
     0
102
RTVSPost2010PropOp34
 70
     1
102
RTVSPost2010Prop35
280
     0
102
RTVSPost2010PropOp35
 70
     1
102
RTVSPost2010Prop36
280
     0
102
RTVSPost2010PropOp36
 70
     1
102
RTVSPost2010Prop37
 90
       50
102
RTVSPost2010PropOp37
 70
     1
102
RTVSPost2010Prop38
140
0.0
102
RTVSPost2010PropOp38
 70
     1
102
RTVSPost2010Prop39
140
1.0
102
RTVSPost2010PropOp39
 70
     1
102
RTVSPost2010Prop40
 90
        0
102
RTVSPost2010PropOp40
 70
     1
102
RTVSPost2010Prop41ColorIndex
 90
       18
102
RTVSPost2010Prop41ColorRGB
 90
        0
102
RTVSPost2010PropOp41
 70
     1
102
RTVSPost2010Prop42
 90
       50
102
RTVSPost2010PropOp42
 70
     1
102
RTVSPost2010Prop43
 90
        3
102
RTVSPost2010PropOp43
 70
     1
102
RTVSPost2010Prop44ColorIndex
 90
        5
102
RTVSPost2010Prop44ColorRGB
 90
      255
102
RTVSPost2010PropOp44
 70
     1
102
RTVSPost2010Prop45
280
     0
102
RTVSPost2010PropOp45
 70
     1
102
RTVSPost2010Prop46
 90
       50
102
RTVSPost2010PropOp46
 70
     1
102
RTVSPost2010Prop47
 90
       50
102
RTVSPost2010PropOp47
 70
     1
102
RTVSPost2010Prop48
 90
       50
102
RTVSPost2010PropOp48
 70
     1
102
RTVSPost2010Prop49
280
     0
102
RTVSPost2010PropOp49
 70
     1
102
RTVSPost2010Prop50
 90
       50
102
RTVSPost2010PropOp50
 70
     1
102
RTVSPost2010Prop51ColorIndex
 90
      256
102
RTVSPost2010Prop51ColorRGB
 90
-16777216
102
RTVSPost2010PropOp51
 70
     0
102
RTVSPost2010Prop52
140
1.0
102
RTVSPost2010PropOp52
 70
     0
102
RTVSPost2010Prop53
 90
        2
102
RTVSPost2010PropOp53
 70
     1
102
RTVSPost2010Prop54
  1
strokes_ogs.tif
102
RTVSPost2010PropOp54
 70
     1
102
RTVSPost2010Prop55
280
     0
102
RTVSPost2010PropOp55
 70
     1
102
RTVSPost2010Prop56
140
1.0
102
RTVSPost2010PropOp56
 70
     1
102
RTVSPost2010Prop57
140
1.0
102
RTVSPost2010PropOp57
 70
     1
  0
ENDSEC
  0
EOF
